Song name
# A B C D E F G H I J K L M N O P Q R S T U V W X Y Z

Metro Station - Shake It tab

-------------------------------------------------------------------------------
			     SHAKE IT - Metro Station
-------------------------------------------------------------------------------
Tabbed by: Mac
Email: famousblinker@hotmail.com

Tuning: Standard


It's a pretty easy song and I think that this is close to 100% correct. I 
tabbed some bits which is played by the synthesiser for guitar. Sounds better 
in my opinion


INTRO

e|---------------------------------------------------------------------------|
B|---------------------------------------------------------------------------|
G|---4~------6~------2~------9~----------------------------------------------|
D|---4~------6~------2~------9~----------------------------------------------|
A|---2~------4~------0~------7~----------------------------------------------|
E|---------------------------------------------------------------------------|

e|---------------------------------------------------------------------------|
B|---------------------------------------------------------------------------|
G|---4---4---6---6/9---9----2---2---2---6/9---9------------------------------|  x2
D|---4---4---6---6/9---9----2---2---2---6/9---9------------------------------|
A|---2---2---4---4/7---7----0---0---0---4/7---7------------------------------|
E|---------------------------------------------------------------------------|


VERSE

e|---------------------------------------------------------------------------|
B|---7~------9~--------------------------------------------------------------|
G|-----------------9~--------------------------------------------------------|  x2
D|------------------------9~-------------------------------------------------|
A|---------------------------------------------------------------------------|
E|---------------------------------------------------------------------------|


PRE-CHORUS

e|---------------------------------------------------------------------------|
B|---------------------------------------------------------------------------|
G|---4-4-4-4-4-4-4-4/6-6-6-6/9-9-9-9\2-2-2-2-2-2-2-2-------------------------|  x2
D|---4-4-4-4-4-4-4-4/6-6-6-6/9-9-9-9\2-2-2-2-2-2-2-2-------------------------|
A|---2-2-2-2-2-2-2-2/4-4-4-4/7-7-7-7\0-0-0-0-0-0-0-0-------------------------|
E|---------------------------------------------------------------------------|


CHORUS

e|---------------------------------------------------------------------------|
B|---------------------------------------------------------------------------|
G|---4---4---6---6/9---9----2---2---2---6/9---9------------------------------|  x2
D|---4---4---6---6/9---9----2---2---2---6/9---9------------------------------|
A|---2---2---4---4/7---7----0---0---0---4/7---7------------------------------|
E|---------------------------------------------------------------------------|


VERSE

e|---------------------------------------------------------------------------|
B|---7~------9~--------------------------------------------------------------|
G|-----------------9~--------------------------------------------------------|  x4
D|------------------------9~-------------------------------------------------|
A|---------------------------------------------------------------------------|
E|---------------------------------------------------------------------------|


PRE-CHORUS

e|---------------------------------------------------------------------------|
B|---------------------------------------------------------------------------|
G|---4-4-4-4-4-4-4-4/6-6-6-6/9-9-9-9\2-2-2-2-2-2-2-2-------------------------|  x2
D|---4-4-4-4-4-4-4-4/6-6-6-6/9-9-9-9\2-2-2-2-2-2-2-2-------------------------|
A|---2-2-2-2-2-2-2-2/4-4-4-4/7-7-7-7\0-0-0-0-0-0-0-0-------------------------|
E|---------------------------------------------------------------------------|


CHORUS

e|---------------------------------------------------------------------------|
B|---------------------------------------------------------------------------|
G|---4---4---6---6/9---9----2---2---2---6/9---9------------------------------|  x2
D|---4---4---6---6/9---9----2---2---2---6/9---9------------------------------|
A|---2---2---4---4/7---7----0---0---0---4/7---7------------------------------|
E|---------------------------------------------------------------------------|


BRIDGE

e|---------------------------------------------------------------------------|
B|---10---9---7-------10---9---7------------------------------------------7--|
G|----------------9----------------9---9-------9------9-------9---8---9------|
D|-----------------------------------------9-------9------9------------------|
A|---------------------------------------------------------------------------|
E|---------------------------------------------------------------------------|


PRE-CHORUS

e|---------------------------------------------------------------------------|
B|---------------------------------------------------------------------------|
G|---4-4-4-4-4-4-4-4/6-6-6-6/9-9-9-9\2-2-2-2-2-2-2-2-------------------------|  x2
D|---4-4-4-4-4-4-4-4/6-6-6-6/9-9-9-9\2-2-2-2-2-2-2-2-------------------------|
A|---2-2-2-2-2-2-2-2/4-4-4-4/7-7-7-7\0-0-0-0-0-0-0-0-------------------------|
E|---------------------------------------------------------------------------|


CHORUS

e|---------------------------------------------------------------------------|
B|---------------------------------------------------------------------------|
G|---4---4---6---6/9---9----2---2---2---6/9---9------------------------------|  x2
D|---4---4---6---6/9---9----2---2---2---6/9---9------------------------------|
A|---2---2---4---4/7---7----0---0---0---4/7---7------------------------------|
E|---------------------------------------------------------------------------|


| /  slide up
| \  slide down
| h  hammer-on
| p  pull-off
| ~  vibrato
| +  harmonic
| x  Mute note
===============================================================================
Tap to rate this tab
# A B C D E F G H I J K L M N O P Q R S T U V W X Y Z