Guitaretab - guitar tabs
Song name
# A B C D E F G H I J K L M N O P Q R S T U V W X Y Z

Metronomy - Thing For Me tab

Metronomy
Thing for me
coolest band ever!!!!!

Not really any guitar in this, but i thought id put the chords up and some bits a pieces 
we can all jam along to it. enjoy!

CHORDS:

A, E, B, C
[ Tab from: http://www.guitaretab.com/m/metronomy/191122.html ]
STARTING RIFF:
e|-------------------------------|
B|-------------------------------|
G|------12--------12-------------|
D|---------14--------14----------|
A|---12--------12----------------|
E|-------------------------------|


FUSION OF RIFF AND CHORDS, WELL.. ROUTE NOTES THEN, BUT STIL WORKS!:
e|--------------------------------|
B|--------------------------------|
G|--------------------------------|
D|----5------5-------5------5-----|
A|------7-------7------7------7---|
E|--5------0-------7------8-------|


Hope this helps!
shes gonna leave at 3!
cheersxxx
Related for Thing For Me tab
Advertisement will be closed in 10 seconds