Song name
# A B C D E F G H I J K L M N O P Q R S T U V W X Y Z

Metronomy - Heartbreaker tab

-----------------------------------------------------------------------------
			   Heartbreaker - Metronomy
-----------------------------------------------------------------------------

Tabbed By : Cian Jennings

Tuning: Standard

I've worked this tab out by ear as theyre wasnt any tab for guitar on this song. I'm 
pretty sure this tab is correct. This song is played differently live, and has quite a few 
keyboard parts, but use this as a basis for the actual guitar.

Intro/Fill (After Bass Solo)

E|---------------13---13-15--------|
B|13---13-13-16-------------16-13--|
G|---------------------------------| X 7
D|---------------------------------|
A|---------------------------------|
E|---------------------------------|


Verse

E|-15----------------13------------|
B|----16-13----13-16---------------|
G|---------------------------------| X 17
D|---------------------------------|
A|---------------------------------|
E|---------------------------------|


Chorus

E|-1---1-1-1----9---9--9--9----8---8--8--8----8---8--8--8---|
B|-1---1-1-1----9---9--9--9----9---9--9--9----8---8--8--8---|
G|-1---1-1-1----10--10-10-10---10--10-10-10---9---9--9--9---|
D|-3---3-3-3----11--11-11-11---10--10-10-10---10--10-10-10--|
A|-3---3-3-3----11--11-11-11---8---8--8--8----10--10-10-10--|
E|-1---1-1-1----9---9--9--9----8---8--8--8----8---8--8--8---|

                                                               X 2

E|-9---9--9--9----8---8--8--8----6---6-6-6----8---8--8--8---|
B|-9---9--9--9----9---9--9--9----6---6-6-6----9---9--9--9---|
G|-10--10-10-10---10--10-10-10---6---6-6-6----10--10-10-10--|
D|-11--11-11-11---10--10-10-10---8---8-8-8----10--10-10-10--|
A|-11--11-11-11---8---8--8--8----8---8-8-8----8---8--8--8---|
E|-9---9--9--9----8---8--8--8----6---6-6-6----8---8--8--8---|

--- Order ---

Intro/Fill  X 1
Verse  X 1
Chorus  X 2
REST
Verse  X 2
REST
Chorus  X 4


============================================================================
Tap to rate this tab
 
# A B C D E F G H I J K L M N O P Q R S T U V W X Y Z