Song name
# A B C D E F G H I J K L M N O P Q R S T U V W X Y Z

Michael Angelo - China tab

#----------------------------------PLEASE NOTE---------------------------------#
#This file is the author's own work and represents their interpretation of the #
#song. You may only use this file for private study, scholarship, or research. #
#------------------------------------------------------------------------------#

CHINA
As recorded by Michael Angelo Batio
(From the 1998 Album TRADITION)


Transcribed by Edwin Dillon

 Music by Mike Batio
Arranged by Mike Batio
 

Gtr I (E A D G B E) - 'Lead Guitar'
Gtr II (E A D G B E) - 'Rhythm'


 Intro
  Q=146
 6/4
  Gtr I
  Q.    Q.   Q.   Q.     Q.    Q.    Q.    Q  E
|----------------------|------------------------|
|----------------------|------------------------|
|-----------------9----|------11----------13--9-|
|------11----7---------|-9----------11----------|
|-9--------------------|------------------------|
|----------------------|------------------------|


  +E   E E Q   E E Q  E E E   +E  Q  Q  Q  E E Q  E
|---------------------------|-----------------------|
|---------------------------|-----------------------|
|-(9)-----------------------|-----------------------|
|-----11-7-9----------------|---------------------7-|
|-------------11-7-9--7-6-4-|-(4)----------7-6-4----|
|---------------------------|-----7--5--4-----------|


  E E E E E E E E E S S E E   W               H
|---------------------------|-----------------------------|
|---------------------------|-----------------------------|
|---------------------------|-----------------------------|
|-6-4---4-6-7-6-4---4h6p4---|-4---------------------------|
|-----7-----------7-------7-|-----------------------------|
|---------------------------|-----------------------------|
|
| Gtr II
|                             PM  PM  PM  PM--|
|                                                 |-3-|
| W               H           E E E E E E E E E E S S S E
|---------------------------|-----------------------------|
|---------------------------|-----------------------------|
|---------------------------|-----------------------------|
|---------------------------|-----------------------------|
|---------------------------|---5---4---3-------3-2h3p2---|
|---------------------------|-2---2---2---2-3-4---------3-|


    W               H              7x
||---------------------------------||
||o-------------------------------o||
||---------------------------------||
||---------------------------------||
||o-------------------------------o||
||---------------------------------||
|
|   PM  PM  PM  PM--|
|                       |-3-|
|   E E E E E E E E E E S S S E    7x
||---------------------------------||
||o-------------------------------o||
||---------------------------------||
||---------------------------------||
||o---5---4---3-------3-2h3p2-----o||
||--2---2---2---2-3-4---------3----||


   |--3--|  |--3--|  |------6-------|  |------6-------|  |------6-------|  |--3--|  |--3--|  |------6-------|
   S  S  S  S  S  S  S  S  S  S  S  S  S  S  S  S  S  S  S  S  S  S  S  S  S  S  S  S  S  S  S  S  S  S  S  S
|-------------------15-14-12----------17-15-14----------19-17-15----------------------------19-18-16----------|
|----------15-14-12----------15-14-12----------17-15-14----------19-17-15----------19-18-16----------19-18-16-|
|-14-12-11----------------------------------------------------------------18-16-15----------------------------|
|-------------------------------------------------------------------------------------------------------------|
|-------------------------------------------------------------------------------------------------------------|
|-------------------------------------------------------------------------------------------------------------|


                     ~~~~~~~~~~~~~~~~~~~~~PM|
   |------6-------|
   S  S  S  S  S  S  W            +E      S S
|-21-19-18----------21b23--------(21)pb23--------|
|----------21-19-18------------------------------|
|------------------------------------------------|
|-----------------------------------------2-3----|
|------------------------------------------------|
|------------------------------------------------|


 Melody Theme
            ~~~~~~
                    |-3-|
  E E E E E E +Q.   S S S E E
|-----------------------------|
|-----------------------------|
|---7---6---5-(5)---4h5p4-2---|
|-4---4---4-----------------4-|
|-----------------------------|
|-----------------------------|


          ~~~~~~~~~~~~                ~~~~~~
  |-3-|                                       |-3-|
  Q Q Q   H.      +E  S S   E E E E E E +Q.   S S S E E
|-------------------------|-----------------------------|
|-------------------------|-----------------------------|
|-2-4-4b6-2-------(2)-----|---7---6---5-(5)---4h5p4-----|
|---------------------2-3-|-4---4---4---------------7-4-|
|-------------------------|-----------------------------|
|-------------------------|-----------------------------|


                                     ~~~~~~
                                             |-3-|
  S S W        +Q   S S   E  E E E E E +Q.   S S S  E E
|-----------------------|---10---9---8-(8)---7h8p7------|
|-------------------5-6-|-7----7---7---------------10-7-|
|-4p2-------------------|-------------------------------|
|-----4--------(4)------|-------------------------------|
|-----------------------|-------------------------------|
|-----------------------|-------------------------------|


               ~~~~~~~~~~~
   |--3--|
   Q  Q  Q     H.       E S S
|-----------------------------|
|-10-12-12b14r10-------10-5-6-|
|-----------------------------|
|-----------------------------|
|-----------------------------|
|-----------------------------|


             ~~~~~~
                     |-3-|
  E  E E E E E +Q.   S S S  E E
|---10---9---8-(8)---7h8p7------|
|-7----7---7---------------10-7-|
|-------------------------------|
|-------------------------------|
|-------------------------------|
|-------------------------------|


              ~~                                      ~~~~~~~~~~~~~~~
                  |--3--|  |--3--|  |--3--|  |--3--|
   S  S  S S  Q   S  S  S  S  S  S  S  S  S  S  S  S  Q      +S       S  E
|--------------------------------------------------------------------------|
|-12-10-------------------------------------17-16-14-17b19--(17)pb19----12-|
|-------11-9-11-----------16-14-13-17-16-14--------------------------14----|
|----------------16-14-13--------------------------------------------------|
|--------------------------------------------------------------------------|
|--------------------------------------------------------------------------|


 4/4
   ~~~~~~~~~~~~~~~~~~~~                                                           ~~~
                       |--3--|                                              |--3--|
   H.         +E       S  S  S    S  S  S  S  S  S  S  S  S  S  S  S  S  S  S  S  S
|------------------------------|----------------------------------------------------|
|-15b17------(15)pb17r=========|=12-15-14-13-12----12-------------------------------|
|---------------------12-14-15-|----------------15----15-14-13-12----12----12h14p12-|
|------------------------------|----------------------------------14----14----------|
|------------------------------|----------------------------------------------------|
|------------------------------|----------------------------------------------------|


 ~~~~~~                   PM---|
   +S   S  S  S  S  S  S  S  S  S  S  S  S  S  S  S
|-----------------------------------------------------|
|-----------------------------------------------------|
|-(12)------------------------------------------------|
|------14-13-12----------------------------12-13-14---|
|---------------14-13-12----------12-13-14------------|
|------------------------15-12-15---------------------|


               |-------3-------|                |--3--|
   S  S  S  S  S     +S       +S    S  S  Q.    S  S  S
|-------------------------------------------------------|
|-------------------------------------------------------|
|-12----14----12b14-(12)pb14-(12)r-------------12-14-15-|
|----14----14----------------------14-12-14-------------|
|-------------------------------------------------------|
|-------------------------------------------------------|


   S  S  S  S  S  S  S  S  S  S  S  S  S  S  S  S
|-------------------------------------------------|
|-12-15-14-13-12----12----------------------------|
|----------------15----15-12-11-------12-11-------|
|-------------------------------15-14-------14-12-|
|-------------------------------------------------|
|-------------------------------------------------|


   S  S  S  S  S  S  S  S  S  S  S  S  S  S  S  S
|-------------------------------------------------|
|-------------------------------------------------|
|-12-11-------------------------------------------|
|-------14-12-11----11-12-14----------------------|
|----------------12----------14-13-14-12-13-12-11-|
|-------------------------------------------------|


   S S S S S S S S S S S S S S S S
|-----------------------------------|
|-----------------------------------|
|-----------------------------------|
|------7---5-4----------------------|
|-10-7---7-----7-5-4----------------|
|--------------------7-6-7-5-6-5-3--|


                 ~~
                       |--3--|
  E S S S S E    Q.    S  S  S
|---------------------------11-|
|------------------------12----|
|---------------------11-------|
|------------------------------|
|---------7-7b10-7-------------|
|-0-3-5-7----------------------|


   |------6-------|  |------6-------|  |------6-------|  |------6-------|
   S  S  S  S  S  S  S  S  S  S  S  S  S  S  S  S  S  S  S  S  S  S  S  S
|-14p11----------11-14p11----------12-15p12----------12-15p12----------13--|
|-------12----12----------12----13----------13----13----------13----14-----|
|----------11----------------12----------------12----------------13--------|
|--------------------------------------------------------------------------|
|--------------------------------------------------------------------------|
|--------------------------------------------------------------------------|


                                       ~~
   |------6-------|  |------6-------|
   S  S  S  S  S  S  S  S  S  S  S  S  H
|-16p13----------13-16p13----------14-17----|
|-------14----14----------14----15----------|
|----------13----------------14-------------|
|-------------------------------------------|
|-------------------------------------------|
|-------------------------------------------|


                           |------6-------|  |------6-------|
   S  S  S  S  S  S  S  S  S  S  S  S  S  S  S  S  S  S  S  S
|----------------------------------------------------14-16-17--|
|-16h17p16p14-------------------------------14-16-17-----------|
|-------------16p14p13-------------13-14-16--------------------|
|----------------------16-13-14-16-----------------------------|
|--------------------------------------------------------------|
|--------------------------------------------------------------|


   |------6-------|  |------6-------|  |------6-------|  |------6-------|
   S  S  S  S  S  S  S  S  S  S  S  S  S  S  S  S  S  S  S  S  S  S  S  S
|-19-17-16----------------------------------------------------------------|
|----------19-17-16-------------------------------------------------------|
|-------------------16-14-13----------16-14-13----------------------------|
|----------------------------16-14-13----------16-14-13-------------------|
|-------------------------------------------------------14-12-11----------|
|----------------------------------------------------------------14-12-11-|


   ~~       T       T  T       T            T  T
      |------6------|  |-----6------| |------6------|
   Q  S  S  S S  S  S  S S  S  S S  S S  S  S  S S  S
|---------------------------------------------16p9h12-|
|-----------------------------------------------------|
|-----------------------------------------------------|
|-16------------------18p9h14-18p9h14p9h14-18---------|
|-----7h11h14-7h11h14---------------------------------|
|-----------------------------------------------------|


                              ~~~~~
   S  S  S  S  S  S  S  S  S  E     S  S  S  S  S
|----------14-12-16-14-12----------------------16-|
|----14-12----------------14-13b14-17-16-17-19----|
|-11----------------------------------------------|
|-------------------------------------------------|
|-------------------------------------------------|
|-------------------------------------------------|


                                       ~~
   S  S  S  S  S  S  S  S  S  S  S  S  Q
|-19-16-----------------------------------|
|-------17--------------------------------|
|----------18----16-----------------------|
|-------------19----18----16----------16--|
|----------------------19----18----18-----|
|-------------------------------19--------|


         ~~~~~~~             ~~~~~~~~~
                 |--3--|
   S  S  E  +E   S  S  S  E  E  +Q
|------------------------16-19-(19)--|
|---------------------17-------------|
|-------16-(16)----18----------------|
|----18---------19-------------------|
|-19---------------------------------|
|------------------------------------|


 ~~~~~~
         |------6-------|  |------6-------|  |------6-------|
   +Q    S  S  S  S  S  S  S  S  S  S  S  S  S  S  S  S  S  S
|-(19)-----------16----------------16-17-19-17-16-17-16-------|
|-------16-17-19----19-17-16-17-19----------------------19-17-|
|-------------------------------------------------------------|
|-------------------------------------------------------------|
|-------------------------------------------------------------|
|-------------------------------------------------------------|


                                         ~~~~~
   |-------6--------|  |------6-------|
   S    S  S  S  S  S  S  S  S  S  S  S  H
|------------16-17-19----------16-17-19-19b21-------|
|-16---17-19----------16-17-19----------------------|
|---------------------------------------------------|
|---------------------------------------------------|
|---------------------------------------------------|
|---------------------------------------------------|
|
| Gtr II
|  H..                                          S S
|---------------------------------------------------|
|---------------------------------------------------|
|---------------------------------------------------|
|---------------------------------------------------|
|---------------------------------------------------|
|-----------------------------------------------0-1-|


   6/4
    W               H             3x
||--------------------------------||
||o------------------------------o||
||--------------------------------||
||--------------------------------||
||o------------------------------o||
||--------------------------------||
|
|   PM  PM  PM  PM--|
|                       |-3-|
|   E E E E E E E E E E S S S E   3x
||--------------------------------||
||o------------------------------o||
||--------------------------------||
||--------------------------------||
||o---5---4---3-------3-2h3p2----o||
||--2---2---2---2-3-4---------3---||


  W               Q.         S S
|--------------------------------|
|--------------------------------|
|--------------------------------|
|----------------------------2-3-|
|--------------------------------|
|--------------------------------|
|
| PM  PM  PM  PM--|
|                      |-3-|
| E E E E E E E E E  E S S S E
|--------------------------------|
|--------------------------------|
|--------------------------------|
|--------------------------------|
|---5---4---3--------3-2h3p2-----|
|-2---2---2---2-3-4----------3---|


            ~~~~~~                      ~~~~~~~~~~~~~
                    |-3-|       |-3-|
  E E E E E E +Q.   S S S E E   Q Q Q   H.       +E  S S
|-----------------------------|----------------------------|
|-----------------------------|----------------------------|
|---7---6---5-(5)---4h5p4-2---|-2-4-4b6-2--------(2)-------|
|-4---4---4-----------------4-|----------------------2-3---|
|-----------------------------|----------------------------|
|-----------------------------|----------------------------|
|
| H       W                     W             H
|-----------------------------|----------------------------|
|-----------------------------|----------------------------|
|-----------------------------|----------------------------|
|-----------------------------|----------------------------|
|-----------------------------|----------------------------|
|-----------------------------|----------------------------|


            ~~~~~~
                    |-3-|
  E E E E E E +Q.   S S S E E   S S W        +Q   S S
|-----------------------------|-----------------------|
|-----------------------------|-------------------5-6-|
|---7---6---5-(5)---4h5p4-----|-4p2-------------------|
|-4---4---4---------------7-4-|-----4--------(4)------|
|-----------------------------|-----------------------|
|-----------------------------|-----------------------|


             ~~~~~~
                     |-3-|
  E  E E E E E +Q.   S S S  E E
|---10---9---8-(8)---7h8p7-------|
|-7----7---7---------------10-7--|
|--------------------------------|
|--------------------------------|
|--------------------------------|
|--------------------------------|


               ~~~~~~~~~~~                 ~~~~~~
   |--3--|                                         |-3-|
   Q  Q  Q     H.       E S S   E  E E E E E +Q.   S S S  E E
|-----------------------------|---10---9---8-(8)---7h8p7------|
|-10-12-12b14r10-------10-5-6-|-7----7---7---------------10-7-|
|-----------------------------|-------------------------------|
|-----------------------------|-------------------------------|
|-----------------------------|-------------------------------|
|-----------------------------|-------------------------------|


              ~~           ~~~~~
   S  S  S S  Q   S  S  E  H.
|----------------------14----------|
|-12-10----------14-17----17b19----|
|-------11-9-11--------------------|
|----------------------------------|
|----------------------------------|
|----------------------------------|


 4/4
            ~~~~~~~~~~~~~~
                                       |--3--|
   S  S  S  S     +H          +E       S  S  S
|----------------------------------------------|
|-17-15----15b17-(15)pb17----(15)pb17r=========|
|-------16----------------------------12-14-15-|
|----------------------------------------------|
|----------------------------------------------|
|----------------------------------------------|


                                                   ~~
                                             |--3--|
   S  S  S  S  S  S  S  S  S  S  S  S  S  S  S  S  S
|----------------------------------------------------|
|-12-15-14-13-12----12-------------------------------|
|----------------15----15-14-13-12----12----12h14p12-|
|----------------------------------14----14----------|
|----------------------------------------------------|
|----------------------------------------------------|


   ~~                   PM---|
   S  S  S  S  S  S  S  S  S  S  S  S  S  S  S  S
|-------------------------------------------------|
|-------------------------------------------------|
|-12----------------------------------------------|
|----14-13-12----------------------------12-13-14-|
|-------------14-13-12----------12-13-14----------|
|----------------------15-12-15-------------------|


               |-------3-------|                |--3--|
   S  S  S  S  S     +S       +S    S  S  Q.    S  S  S
|-------------------------------------------------------|
|-------------------------------------------------------|
|-12----14----12b14-(12)pb14-(12)r-------------12-14-15-|
|----14----14----------------------14-12-14-------------|
|-------------------------------------------------------|
|-------------------------------------------------------|


   S  S  S  S  S  S  S  S  S  S  S  S  S  S  S  S
|-------------------------------------------------|
|-12-15-14-13-12----12----------------------------|
|----------------15----15-12-11-------12-11-------|
|-------------------------------15-14-------14-12-|
|-------------------------------------------------|
|-------------------------------------------------|


   S  S  S  S  S  S  S  S  S  S  S  S  S  S  S  S
|--------------------------------------------------|
|--------------------------------------------------|
|-12-11--------------------------------------------|
|-------14-12-11----11-12-14-----------------------|
|----------------12----------14-13-14-12-13-12-11--|
|--------------------------------------------------|


                                                    ~~
                                                          |--3--|
   S S S S S S S S S S S S S S S S   E S S S S E    Q.    S  S  S
|----------------------------------|---------------------------11-|
|----------------------------------|------------------------12----|
|----------------------------------|---------------------11-------|
|------7---5-4---------------------|------------------------------|
|-10-7---7-----7-5-4---------------|---------7-7b10-7-------------|
|--------------------7-6-7-5-6-5-3-|-0-3-5-7----------------------|


   |------6-------|  |------6-------|  |------6-------|  |------6-------|
   S  S  S  S  S  S  S  S  S  S  S  S  S  S  S  S  S  S  S  S  S  S  S  S
|-14p11----------11-14p11----------12-15p12----------12-15p12----------13-|
|-------12----12----------12----13----------13----13----------13----14----|
|----------11----------------12----------------12----------------13-------|
|-------------------------------------------------------------------------|
|-------------------------------------------------------------------------|
|-------------------------------------------------------------------------|


                                       ~~
   |------6-------|  |------6-------|
   S  S  S  S  S  S  S  S  S  S  S  S  H
|-16p13----------13-16p13----------14-17----|
|-------14----14----------14----15----------|
|----------13----------------14-------------|
|-------------------------------------------|
|-------------------------------------------|
|-------------------------------------------|


                           |------6-------|  |------6-------|
   S  S  S  S  S  S  S  S  S  S  S  S  S  S  S  S  S  S  S  S
|----------------------------------------------------14-16-17-|
|-16h17p16p14-------------------------------14-16-17----------|
|-------------16p14p13-------------13-14-16-------------------|
|----------------------16-13-14-16----------------------------|
|-------------------------------------------------------------|
|-------------------------------------------------------------|


   |------6-------|  |------6-------|  |------6-------|  |------6-------|
   S  S  S  S  S  S  S  S  S  S  S  S  S  S  S  S  S  S  S  S  S  S  S  S
|-19-17-16----------------------------------------------------------------|
|----------19-17-16-------------------------------------------------------|
|-------------------16-14-13----------16-14-13----------14-13-11----------|
|----------------------------16-14-13----------16-14-13----------14-13-11-|
|-------------------------------------------------------------------------|
|-------------------------------------------------------------------------|


                       T    T      T       T      T       T  T
   |------6------|  |-----6-----|  |-----6-----|  |------6------|
   S  S  S  S  S S  S  S S  S S S  S S  S  S S S  S S  S  S  S  S
|-----------------------------------------------------------------|
|-----------------------------------------------------------17----|
|----------------9h13h16p9-----------------------16p9h13h16-------|
|-------11h13h14-----------14p6h9------------6h9---------------11-|
|-14h16---------------------------14p7h11-14----------------------|
|-----------------------------------------------------------------|


                              ~~~~~
   S  S  S  S  S  S  S  S  S  E     S  S  S  S  S
|----------14-12-16-14-12----------------------16-|
|----14-12----------------14-13b14-17-16-17-19----|
|-11----------------------------------------------|
|-------------------------------------------------|
|-------------------------------------------------|
|-------------------------------------------------|


                                       ~~          ~~~~~~~             ~~~~~~~~~
                                                           |--3--|
   S  S  S  S  S  S  S  S  S  S  S  S  Q     S  S  E  +E   S  S  S  E  E  +Q
|-19-16-----------------------------------|------------------------16-19-(19)--|
|-------17--------------------------------|---------------------17-------------|
|----------18----16-----------------------|-------16-(16)----18----------------|
|-------------19----18----16----------16--|----18---------19-------------------|
|----------------------19----18----18-----|-19---------------------------------|
|-------------------------------19--------|------------------------------------|


 ~~~~~~
         |------6-------|  |------6-------|  |------6-------|
   +Q    S  S  S  S  S  S  S  S  S  S  S  S  S  S  S  S  S  S
|-(19)-----------16----------------16-17-19-17-16-17-16---------|
|-------16-17-19----19-17-16-17-19----------------------19-17---|
|---------------------------------------------------------------|
|---------------------------------------------------------------|
|---------------------------------------------------------------|
|---------------------------------------------------------------|


   |------6-------|  |------6-------|  |------6-------|  |------6-------|
   S  S  S  S  S  S  S  S  S  S  S  S  S  S  S  S  S  S  S  S  S  S  S  S
|----------16-17-19----------17-19-21----------16-17-19----------14-16-17-|
|-16-17-19----------17-19-21----------16-17-19----------14-16-17----------|
|-------------------------------------------------------------------------|
|-------------------------------------------------------------------------|
|-------------------------------------------------------------------------|
|-------------------------------------------------------------------------|


 Major Section
   ~~~~~~~~~~
              |--3--|
   H     +E   S  S  S  E  E
|-19----(19)-17h19p17-16-17--|
|----------------------------|
|----------------------------|
|----------------------------|
|----------------------------|
|----------------------------|


         ~~~                             ~~~~~~~
                  |--3--|
   E  E  Q.    E  E  E  E    E     +E   +H         +E   E
|-16----------------------|-------------------------------|
|----17-------------17-19-|-19b21r(19)-(19)b21----(19)-17-|
|-------16----16-18-------|-------------------------------|
|-------------------------|-------------------------------|
|-------------------------|-------------------------------|
|-------------------------|-------------------------------|


   |--3--|       |--3--|       |--3--|       |--3--|      |-3--|                      |-3-|     |-3-|     |-3-|    |-3-|   |-3-|
   S  S  S  +S   S  S  S  +S   S  S  S  +S   S  S  S  +S  S  S S +S  T.X   +T  T. +S  S S S +S  S S S +S  S S S T. S S S S S S S
|------------------------------------------------------------------------|----------------------------------------------------------|
|-16h17p16-(16)-14h16p14-(14)-12h14p12-(12)-10h12p10-(10)-9h10p9-(9)-7h9-|-(9)-7--(7)-5h7p5-(5)-4h5p4-(4)-2-0---0--2h4p2p0----------|
|------------------------------------------------------------------------|------------------------------------2------------2h4p2----|
|------------------------------------------------------------------------|----------------------------------------------------------|
|------------------------------------------------------------------------|----------------------------------------------------------|
|------------------------------------------------------------------------|----------------------------------------------------------|


  |-3-| |-3-|   |-3-|
  S S S S S S E S S S E. E. E   E. E. E E. E. E
|-----------------------------|-----------------|
|-0h2h4p2p0-------------------|-----------------|
|-----------4p2-2h4p2-1-------|-----------------|
|------------------------4--2-|-1---------------|
|-----------------------------|----4--2-0-------|
|-----------------------------|------------4--2-|


 3/4            4/4
           PM------------------|
  H    +E  S S   S S S S S S S S S S S S S S S S
|--------------|-------------------------2-0---0--|
|--------------|-----------------2-0---0-----4----|
|--------------|---------2-1-0-1-----3------------|
|----------2-2-|-4-2-1-2--------------------------|
|--------------|----------------------------------|
|-0----(0)-----|----------------------------------|


  S S S S S S  S S  S  S  S  S  S  S  S  S
|-5-4---4-9-7----7-12-11-10-11-14-12----12-|
|-----7-------11---------------------16----|
|------------------------------------------|
|------------------------------------------|
|------------------------------------------|
|------------------------------------------|


   ~~~~~~~~~~
                 |--3--|  |------6-------|
   H     +E   a  S  S  S  S  S  S  S  S  S
|-16----(16)----------14----------------14-|
|------------14-16-17----17-16-14-16-17----|
|------------------------------------------|
|------------------------------------------|
|------------------------------------------|
|------------------------------------------|


 4/4
   |------6-------|  |------6-------|  |------6-------|  |------6-------|
   S  S  S  S  S  S  S  S  S  S  S  S  S  S  S  S  S  S  S  S  S  S  S  S
|-16-17-16-14-16-14-------------14-16-17-16-14----------------------------|
|-------------------17-14-16-17-------------------------------14-16-17-16-|
|----------------------------------------------14-13-11-13-14-------------|
|-------------------------------------------------------------------------|
|-------------------------------------------------------------------------|
|-------------------------------------------------------------------------|


   |------6-------|  |------6-------|  |------6-------|  |------6------|
   S  S  S  S  S  S  S  S  S  S  S  S  S  S  S  S  S  S  S  S  S  S  S S
|--------------------------------------------------------------------------|
|-14-----------------------------------------------------------------------|
|-------------------13-14-16-14-13-----------------------------------------|
|----16-14-13-14-16-------------------------------11-13-14-13-11-----------|
|----------------------------------14-12-11-12-14--------------------------|
|----------------------------------------------------------------12-11-9---|


   |------6-------|  |------6-------|  |------6-------|  |------6-------|
   S  S  S  S  S  S  S  S  S  S  S  S  S  S  S  S  S  S  S  S  S  S  S  S
|----------------------------------------------------------------12-14-12-|
|-------------------------------------------------------12-14-16----------|
|----------------------------13-14-16----------11-13-14-------------------|
|-------------------13-14-16----------11-13-14----------------------------|
|----------11-12-14-------------------------------------------------------|
|-11-12-14----------------------------------------------------------------|


 3/4
                                       ~~
   |------6-------|  |------6-------|
   S  S  S  S  S  S  S  S  S  S  S  S  Q
|-------------14-16-17----------16-17-19--|
|-16-14-16-17----------16-17-19-----------|
|-----------------------------------------|
|-----------------------------------------|
|-----------------------------------------|
|-----------------------------------------|


                         4/4
    ~~~~~~~~~~~
                |--3--|
   +H      +E   S  S  S    E  E  E  Q   E  E  E
|-(19)----(19)-17h19p17-|-16-17-19--------16-17-|
|-----------------------|----------17--19-------|
|-----------------------|-----------------------|
|-----------------------|-----------------------|
|-----------------------|-----------------------|
|-----------------------|-----------------------|


               ~~~~~~~~~~~~
   E  E  E  E  H       +E   E  E  Q   Q   E
|-16----------------|------------------------|
|----------19-17----|-(17)-16----------------|
|----18-16----------|---------18-16--14--13--|
|-------------------|------------------------|
|-------------------|------------------------|
|-------------------|------------------------|


 3/4                 4/4
            ~~~~~~~~~~~~~~~~~~~~~~~                  T        T        T        T
                                                     |--3--|  |--3--|  |--3--|  |--3--|
   +E   Q   E  +Q      +H      +E   E  E  E    E  E  S  S  S  S  S  S  S  S  S  S  S  S  S  S  S  S
|-------------------|-----------------------|-------19p16p12----------------------------------------|
|-------------------|-----------------------|----------------21p17p12-------------------------------|
|-(13)-14--16-(16)--|-(16)----(16)-14-13-14-|-13----------------------21p16p13----------------------|
|-------------------|-----------------------|----14----------------------------21p18p14-------14-16-|
|-------------------|-----------------------|-------------------------------------------14-16-------|
|-------------------|-----------------------|-------------------------------------------------------|


                                                   3/4
                                                     ~~~
   |------6-------|
   S  S  S  S  S  S  E  S  S  S  S  S  S  S  S  E    H.
|----------------------------------------------14-|-16-----|
|-------------------------------------14-16-17----|--------|
|----------13-14-16----------13-14-16-------------|--------|
|-13-14-16----------14-14-16----------------------|--------|
|-------------------------------------------------|--------|
|-------------------------------------------------|--------|


 Minor Section
 4/4
            ~~~~~
                      |-------6--------|
   S  S  E  H        +E       S  S  S  S
|-------14-------------------------------|
|-14-17----17b19----(17)pb19----------14-|
|----------------------------14-16-17----|
|----------------------------------------|
|----------------------------------------|
|----------------------------------------|
|
| Gtr II
|           ~~~~~
|  S  S  E  H        +E          E
|-14-16-17-16b17----(16)pb17-------------|
|----------------------------------------|
|----------------------------------------|
|----------------------------------------|
|----------------------------------------|
|----------------------------------------|


   |------6-------|  |------6-------|  |------6-------|  |------6-------|
   S  S  S  S  S  S  S  S  S  S  S  S  S  S  S  S  S  S  S  S  S  S  S  S
|-------14-16-17-16-14------------------------------------------------------|
|-16-17-------------------------------14-16-17-16-14------------------------|
|----------------------16-14-13-14-16-------------------------------13-14---|
|----------------------------------------------------16-14-13-14-16---------|
|---------------------------------------------------------------------------|
|---------------------------------------------------------------------------|
|
|  W
|---------------------------------------------------------------------------|
|---------------------------------------------------------------------------|
|---------------------------------------------------------------------------|
|---------------------------------------------------------------------------|
|---------------------------------------------------------------------------|
|---------------------------------------------------------------------------|


   |------6-------|  |------6-------|  |------6-------|  |------6-------|
   S  S  S  S  S  S  S  S  S  S  S  S  S  S  S  S  S  S  S  S  S  S  S  S
|-------------------------------------------------------------------------|
|-------------------------------------------------------------------------|
|-16-14-13-------------------------11-13-14-13-11----------------11-13-14-|
|-------------------------11-13-14----------------14-13-11-13-14----------|
|----------14-12-11-12-14-------------------------------------------------|
|-------------------------------------------------------------------------|


   |------6-------|  |------6-------|  |------6-------|  |------6-------|
   S  S  S  S  S  S  S  S  S  S  S  S  S  S  S  S  S  S  S  S  S  S  S  S
|----------------------------14-16-17----------16-17-19----------16-17-19-|
|-------------------14-16-17----------16-17-19----------16-17-19----------|
|----------13-14-16-------------------------------------------------------|
|-13-14-16----------------------------------------------------------------|
|-------------------------------------------------------------------------|
|-------------------------------------------------------------------------|


    ~~~~~~~~~~~~~~~~~~
                       |--3--|
   +H         +E       S  S  S  E  E
|-(19)b21----(19)pb21-19h21p19-17-19-|
|------------------------------------|
|------------------------------------|
|------------------------------------|
|------------------------------------|
|------------------------------------|


                                                       3/4
   E  E  E  E  E  E  E  E    +E   E  E  E  E  E  E  E    H.
|-17----------------------|---------------------------|--------|
|----21-19-21-17----21-19-|-(19)----------------------|--------|
|----------------18-------|------21-16----16-18-------|--------|
|-------------------------|------------19-------19-18-|-16-----|
|-------------------------|---------------------------|--------|
|-------------------------|---------------------------|--------|


 4/4
            ~~~~~~~~~~~~~~~~~~~~~~~~~~
                               |-------6--------|
   S  S  S  S     +H          +E       S  S  S  S
|-------------------------------------------------|
|-------------------------------------------------|
|-16-14----14b16-(14)pb16----(14)pb16-------------|
|-------16----------------------------12-14-15-16-|
|-------------------------------------------------|
|-------------------------------------------------|


   |------6-------|  |------6-------|  |------6-------|
   S  S  S  S  S  S  S  S  S  S  S  S  S  S  S  S  S  S  S  S  S  S
|-------------------------------------------------------------------|
|----------14-15-14-------------------------------------------------|
|-13-14-16----------16-14-13-14-13----------------------------------|
|----------------------------------16-15-16-15-14-15-14-12-14----12-|
|-------------------------------------------------------------14----|
|-------------------------------------------------------------------|


                     |------6-------|  |------6-------|
   E       Q   S  S  S  S  S  S  S  S  S  S  S  S  S  S
|-------------------------------------------------------|
|-------------------------------------------------------|
|-------------------------------------------------------|
|-14b16.5-12--11-12-14-12-11-12-11----11----------------|
|----------------------------------14----14-12-11-12-14-|
|-------------------------------------------------------|


 3/4
   |------6-------|  |------6-------|  |------6-------|
   S  S  S  S  S  S  S  S  S  S  S  S  S  S  S  S  S  S
|-------------------------------------------------------|
|-------------------------------------------------------|
|-------------------------------------------------------|
|-11-12-14----------11-12-14----------12-13-15----------|
|----------11-12-14----------12-13-15----------13-14-16-|
|-------------------------------------------------------|


 4/4
  |-----6------| |------6-------|  |------6-------|  |----6----|
  S S  S S  S  S S  S  S  S  S  S  S  S  S  S  S  S  S  S  S  +E.
|----------------9-11-12----------11-12-14----------12-14-16-(16)-|
|--------9-11-12---------11-12-14----------12-14-16---------------|
|-8-9-11----------------------------------------------------------|
|-----------------------------------------------------------------|
|-----------------------------------------------------------------|
|-----------------------------------------------------------------|


               |--3--|
   a     +Q    S  S  S  E  E  E  E  E
|-16b17r(16)--14h16p14-12-14-16-------|
|-------------------------------14-12-|
|-------------------------------------|
|-------------------------------------|
|-------------------------------------|
|-------------------------------------|


                                                   3/4
   S  S  S  S  S  S  S  S  S  S  S  S  S  S  S  S    S  S  S  S  H
|-19-16-------------------------------------------|----------16-19----|
|-------17----------------------------------------|-------17----------|
|----------18----16----------------------------16-|----18-------------|
|-------------19----18----16----------16----18----|-19----------------|
|----------------------19----18----18----19-------|-------------------|
|-------------------------------19----------------|-------------------|


 6/4
   |--3--|  |--3--|  |------6-------|  |------6-------|  |------6-------|  |--3--|  |--3--|  |------6-------|
   S  S  S  S  S  S  S  S  S  S  S  S  S  S  S  S  S  S  S  S  S  S  S  S  S  S  S  S  S  S  S  S  S  S  S  S
|-------------------15-14-12----------17-15-14----------19-17-15----------------------------19-18-16----------|
|----------15-14-12----------15-14-12----------17-15-14----------19-17-15----------19-18-16----------19-18-16-|
|-14-12-11----------------------------------------------------------------18-16-15----------------------------|
|-------------------------------------------------------------------------------------------------------------|
|-------------------------------------------------------------------------------------------------------------|
|-------------------------------------------------------------------------------------------------------------|
|
| Gtr II
|  W                                                                       H
|-------------------------------------------------------------------------------------------------------------|
|-------------------------------------------------------------------------------------------------------------|
|-------------------------------------------------------------------------------------------------------------|
|-------------------------------------------------------------------------------------------------------------|
|-------------------------------------------------------------------------------------------------------------|
|-------------------------------------------------------------------------------------------------------------|


                     ~~~~~
   |------6-------|
   S  S  S  S  S  S  W              +Q
|-21-19-18----------21b23----------(21)pb23------|
|----------21-19-18------------------------------|
|------------------------------------------------|
|------------------------------------------------|
|------------------------------------------------|
|------------------------------------------------|
|
|  W                           Q.           S S
|------------------------------------------------|
|------------------------------------------------|
|------------------------------------------------|
|------------------------------------------------|
|------------------------------------------------|
|-------------------------------------------0-1--|


    W               H            3x W               Q.         S S
||-------------------------------||--------------------------------|
||o-----------------------------o||--------------------------------|
||-------------------------------||--------------------------------|
||-------------------------------||----------------------------2-3-|
||o-----------------------------o||--------------------------------|
||-------------------------------||--------------------------------|
|
|   PM  PM  PM  PM--|               PM  PM  PM  PM--|
|                       |-3-|                            |-3-|
|   E E E E E E E E E E S S S E  3x E E E E E E E E E  E S S S E
||-------------------------------||--------------------------------|
||o-----------------------------o||--------------------------------|
||-------------------------------||--------------------------------|
||-------------------------------||--------------------------------|
||o---5---4---3-------3-2h3p2---o||---5---4---3--------3-2h3p2-----|
||--2---2---2---2-3-4---------3--||-2---2---2---2-3-4----------3---|


            ~~~~~~                      ~~~~~~~~~~~~
                    |-3-|       |-3-|
  E E E E E E +Q.   S S S E E   Q Q Q   H.      +E  S S
|-----------------------------|-------------------------|
|-----------------------------|-------------------------|
|---7---6---5-(5)---4h5p4-2---|-2-4-4b6-2-------(2)-----|
|-4---4---4-----------------4-|---------------------2-3-|
|-----------------------------|-------------------------|
|-----------------------------|-------------------------|


            ~~~~~~
                    |-3-|
  E E E E E E +Q.   S S S E E   S S W        +Q   S S
|-----------------------------|-----------------------|
|-----------------------------|-------------------5-6-|
|---7---6---5-(5)---4h5p4-----|-4p2-------------------|
|-4---4---4---------------7-4-|-----4--------(4)------|
|-----------------------------|-----------------------|
|-----------------------------|-----------------------|


             ~~~~~~                            ~~~~~~~~~~~~~
                     |-3-|         |--3--|
  E  E E E E E +Q.   S S S  E E    Q  Q  Q     H.       +E  S S
|---10---9---8-(8)---7h8p7------|-------------------------------|
|-7----7---7---------------10-7-|-10-12-12b14r10-------(10)-5-6-|
|-------------------------------|-------------------------------|
|-------------------------------|-------------------------------|
|-------------------------------|-------------------------------|
|-------------------------------|-------------------------------|


             ~~~~~~                           ~~           ~~~~~
                     |-3-|                        |--3--|
  E  E E E E E +Q.   S S S  E E    S  S  S S  Q   E  E  E  Q      +H
|---10---9---8-(8)---7h8p7------|----------------------14----------------|
|-7----7---7---------------10-7-|-12-10----------14-17----17b19--(17)----|
|-------------------------------|-------11-9-11--------------------------|
|-------------------------------|----------------------------------------|
|-------------------------------|----------------------------------------|
|-------------------------------|----------------------------------------|


 Polytonal Break
   |------6-------|  |------6-------|  |------6-------|  |------6-------|  |------6-------|  |------6-------|
   S  S  S  S  S  S  S  S  S  S  S  S  S  S  S  S  S  S  S  S  S  S  S  S  S  S  S  S  S  S  S  S  S  S  S  S
|-------12-------------------12-------------------12-------------------12----------------------12-14-18-14-12-|
|-14-18----18-14-12-14-18-18----18-14-12-14-18-18----18-14-12-14-18-18----18-14-12-14-18-14-18----------------|
|-------------------------------------------------------------------------------------------------------------|
|-------------------------------------------------------------------------------------------------------------|
|-------------------------------------------------------------------------------------------------------------|
|-------------------------------------------------------------------------------------------------------------|


   |------6-------|  |------6-------|  |------6-------|  |------6-------|  |------6-------|  |------6-------|
   S  S  S  S  S  S  S  S  S  S  S  S  S  S  S  S  S  S  S  S  S  S  S  S  S  S  S  S  S  S  S  S  S  S  S  S
|-------12-------12-------------------------------------------------------------------------------------------|
|-18-14----18-14----18-14-12----12----------------12----18-14-12----------------------------------------------|
|----------------------------18----18-14-12-14-18----18----------18-14-12-------------------------------------|
|-------------------------------------------------------------------------18-12-14-18-14-12-------------------|
|-------------------------------------------------------------------------------------------18-12-14-18-14-12-|
|-------------------------------------------------------------------------------------------------------------|


   |------6-------|  |------6-------|  |------6-------|  |------6-------|  |------6-------|  |------6-------|
   S  S  S  S  S  S  S  S  S  S  S  S  S  S  S  S  S  S  S  S  S  S  S  S  S  S  S  S  S  S  S  S  S  S  S  S
|-------------------------------------------------------------------------------------------------------------|
|-------------------------------------------------------------------------------------------------------------|
|-------------------------------------------------------------------------------------------------------------|
|-------------------------------------------------------------------------18-14-12----------------------------|
|----------------------12-14-18-14-12-------------------------12-14-12-18----------18-14-12----------18-14-12-|
|-18-12-14-18-14-12-18----------------18-12-14-18-14-12-14-18-------------------------------18-14-12----------|


                                                                           ~~~~~
   |------6-------|  |------6-------|  |------6-------|  |------6-------|
   S  S  S  S  S  S  S  S  S  S  S  S  S  S  S  S  S  S  S  S  S  S  S  S  Q.      +E
|-------------------------------------------------------------------------19b21---(19)r-|
|-------------------------------------------------------19-17-16------------------------|
|-17-15-14----------18-16-15----------19-17-16-------------------18-16-15---------------|
|----------17-15-14----------18-16-15----------19-17-16---------------------------------|
|---------------------------------------------------------------------------------------|
|---------------------------------------------------------------------------------------|


 Outro
 4/4
   T        T        T        T        T        T        T        T
   |------6-------|  |------6-------|  |------6-------|  |------6-------|
   S  S  S  S  S  S  S  S  S  S  S  S  S  S  S  S  S  S  S  S  S  S  S  S
|-19p16p12----------------------------------------------------------------|
|----------21p17p12-21p17p12----------------------------------------------|
|----------------------------21p16p13-21p16p13----------------------------|
|----------------------------------------------21p18p14-21p18p14----------|
|----------------------------------------------------------------23p19p14-|
|-------------------------------------------------------------------------|


   T        T        T        T        T        T        T        T
   |------6-------|  |------6-------|  |------6-------|  |------6-------|
   S  S  S  S  S  S  S  S  S  S  S  S  S  S  S  S  S  S  S  S  S  S  S  S
|---------------------------------------------------------------------------|
|-21p17p12------------------------------------------------------------------|
|----------21p16p13-21p16p13------------------------------------------------|
|----------------------------21p18p14-21p18p14------------------------------|
|----------------------------------------------23p19p14-23p19p14------------|
|----------------------------------------------------------------24p19p16---|


  PM  PM  PM  PM|
                        |-3-|
  E E E E E E E E   E E S S S E S S E Q
|-----------------|----------------------*|
|-----------------|-------------7--------*|
|-----------------|---------------6------*|
|-----------------|-----------------4----*|
|---5---4---3-----|---3-2-3-2------------*|
|-2---2---2---2-3-|-4---------3----------*|




--------------------------------------------------------------------------------


Duration Legend
---------------
W - whole; H - half; Q - quarter; E - 8th; S - 16th; T - 32nd; X - 64th; a - acciaccatura
+ - note tied to previous; . - note dotted; .. - note double dotted
Uncapitalized letters represent notes that are staccato (1/2 duration)
Irregular groupings are notated above the duration line
Duration letters will always appear directly above the note/fret number it represents the
duration for.  Duration letters with no fret number below them represent rests.  Multi-
bar rests are notated in the form Wxn, where n is the number of bars to rest for.  Low
melody durations appear below the staff

Tablature Legend
----------------
 h   - hammer-on
 p   - pull-off
 b   - bend
 pb  - pre-bend
 r   - bend release (if no number after the r, then release immediately)
 /\  - slide into or out of (from/to "nowhere")
 s   - legato slide
 S   - shift slide
 - natural harmonic
[n]  - artificial harmonic
n(n) - tapped harmonic
 ~   - vibrato
 tr  - trill
 T   - tap
 TP  - trem. picking
 PM  - palm muting
\n/  - tremolo bar dip; n = amount to dip
 \n  - tremolo bar down
 n/  - tremolo bar up
/n\  - tremolo bar inverted dip
 =   - hold bend; also acts as connecting device for hammers/pulls
 <> - volume swell (louder/softer)
 x   - on rhythm slash represents muted slash
 o   - on rhythm slash represents single note slash

Misc Legend
-----------
 |  - bar
||  - double bar
||o - repeat start
o|| - repeat end
*|  - double bar (ending)
 :  - bar (freetime)
 $  - Segno
 &  - Coda
Tempo markers -  = BPM(8/16=s8/s16), where s8 = swing 8ths, s16 = swing 16ths

Tap to rate this tab
# A B C D E F G H I J K L M N O P Q R S T U V W X Y Z