Song name
# A B C D E F G H I J K L M N O P Q R S T U V W X Y Z

Michael Chapdelaine - More Than Words tab

More Than Words - Michael Chapdelaine
Tune down 1/2 Step - D#G#C#F#A#D#
BPM = 95

PLEASE COMMENT AND RATE!!!

-X on the low E means to slap low E string, or
you can use your fleshy part of the thumb and lightly
thump above the soundhole-
-X's on the GB (and sometimes D string) strings mean
to use your fingernails to hit
those strings to make the noise (preferably middle and
ring fingers)-
-X's around a note mean to strike the note while also
making a percussive effect with the strings.  The best
way to do that is to use your index finger (or middle) to
play the
note while the middle and ring create the noise on the
lower strings-
-Bar 28 calls for you to hit the top left of the guitar body
(closest to you) twice, rhythmically, with the fleshy part
of the thumb, and then strum upwards near the bridge,
and finish off with a fisted palm slap on the strings.
-Part G is played using classical style tremolo picking:
use your thumb to hit the bass notes and use your ring,
middle, and index, alternatively, to play triplet notes
following the bass note.
-After playing the harmonics at bar 64, create a dive
sound by
pressing against the back of the guitar neck near the
head (be
careful).

      E  E  E  Q    E  E  E     E  E  E  E  E  E  E  E
D#||--3--3-----3----3-----3--|--L--3--------3--3--------|
A#||--3--3-----3----3-----3--|--L--3--------3--3-----1--|
F#||--0--0-----0----0-----0--|--L--0--------0--0-----0--|
C#||-------------------------|--------------------------|
G#||-----------2----------3--|--L--------3--3--2-----0--|
D#||--3-----x----------x-----|--------x-----------x-----|


  E  E  E  E  E  E  E  E     E  E  E  Q    E  E  E     E  S S E  Q    E  E  E
--------------3--0-----3--|-----------3----2-----3--|-------3----3----3--3--3--|
--L-----------1--1-----1--|-----------3----3-----3--|-------3-x--3----3--3--3--|
--L--------0--0--0-----0--|-----0-----2----2-----0--|-------0-x--0----0--0--0--|
-----2-----------------2--|-----------0----0--------|--------------------------|
--L-----------------------|--3----------------------|------------2----------3--|
--------x-----------x-----|--------x----------x-----|--3--L--------------------|


  E  E  E  E  E  E  E  E     E    E  E  E  E  E  E  E
--L--3--------3--3-----3--|--L-------------3--0-----3--|
--L--3--------3--3-----1--|--L-------------1--1-----1--|
--L--0--------0--0-----0--|--L-------------0--0-----0--|
--------------------------|-----0g2-----2-----------2--|
--L--------3--3--2-----0--|--L-------------------------|
--------x-----------x-----|----------x-----------x-----|


  E  E  E  Q    E  E  E     E  E  E  E  E  E  E  E      Q    E  E  E  E  E  E
-----------3----2-----3--|-----3--------------------|--------------3--3--------|
-----------3----3-----3--|-----3--x-----0--3--3--0--|--/5-------3--3--3--3--3--|
-----0-----2----2-----0--|-----0--x--0--0-----x-----|--------------------x--x--|
-----------0----0--------|--------------------x-----|--------------------x--x--|
--3----------------------|--------------2-----------|--/3----------3--3--------|
--------x----------x-----|--3-----------------------|--------x-----------------|


  Q    E  E  E  E  E  E     E   E  E  E  E  E  E  E
-------------3--3--------|---------------------------|
--L----5--3--3--3--1--3--|-----/5--L--3-----1-----1--|
-------------------------|------------------0-----0--|
-------------------------|---------------0--------0--|
--0----------0--0--------|--3------------------------|
-------x-----------x-----|---------x-----------x-----|


  E  E  E  E  E  E  E  E      Q     E  E  E  E  E  E
--------------------------|---------------3--3--------|
-----3--------0--3--3--0--|--/5----/5--3--3--3--3--3--|
-----------0--0-----x-----|---------x-----------x--x--|
--------------------x-----|---------x-----------x--x--|
--------------2-----------|--/3-----------3--3--------|
--3-----x-----------------|---------------------------|


  Q    E  E  E  E  E  E     E   E  E  E   E  E   E  E
-------------3--3--------|-----------------------------|
--L----5--3--3--3--1--3--|-----/5-----3S-----1p--L--0--|
-------------------------|-----------------------------|
-------------------------|----------------0------------|
--0----------0--0--------|--3--------------------------|
-------x-----------x-----|---------x---------x---------|


  E  E  E  E  Q    E    E     E  E  E  S  S Q    E    E
---------------------------|-----------------------------|
--------------0-------0g1--|-----------1p-0---------1g3--|
-----0--------0---------0--|----------------2---------0--|
-----4--4-----4------------|-----2-----------------------|
-----2--------2------------|--0--------------------------|
--0--------0-------x-------|--------x------------x-------|


  Q     E  E  E  E  E  E     E  E  E  E  E  E  E  S  S
--------------------------|-----------------------3p-2h-|
-------/5--3--x--x-----0--|-----0--x--0-----3-----------|
--------x-----x--7--5-----|-----4--x--0-----------------|
--------x-----------------|-----5-----------------------|
--------------------------|-----------------------------|
--2-----------x--x--------|--3-----------2-----x--------|


  Q    Q     E  E  E   E     Q    E  E  Q    E  E       Q    E  E  E  E  E  E
--3-----------------------|------------------------|--0g2----2--0-----2--3--1--|
--0----x----/5--5--x--/5--|--L-------1--L-------1--|----1----1--1-----1--1--0--|
-------x----/5--5--x--/5--|--L-------2--L-------2--|----2----2--2-----2--2--0--|
--------------------------|----------0-------------|----0-------------0--------|
--------------------------|--0---------------------|---------------------------|
--0-----------------------|-------x----------x-----|---------------x-----------|


  E  E  E  Q    E   E  E      E  E  E  E  E  E  E  E
-----1-----1----3p--1--1h--|-----0--------------------|
-----0--x--0---------------|--------------3--1-----8--|
-----0--x--0---------------|--------------0-----------|
---------------------------|--------------0-----------|
-----------2---------------|--3--------3--------------|
--3-----------------x------|--------x-----------x-----|


  E  E   E  E  E  E  E  E       E  E  E  E  E  E  Q
---------------------------|---------------------------|
-----L\-----3-----1--------|--3g1--0-----0--0-----3----|
---------------------------|-------------0--0-----4----|
---------------------------|---------------------------|
--3------------3-----------|---------------------------|
---------x-----------x--3--|----------x-----2--x--0----|


  E   Q    E  E  E  E  E     H        H           H        Q    E  E
-----------x--x--x--------|--------------------|----------------------|
--3h--5----------x--x--5--|--5--------1--------|--7--------3----L--0--|
--4--------------x--x--4--|--4--------2--------|--5--------0----L-----|
-----------------x--x-----|-----------2--------|--0-------------------|
-----------------x--x-----|--0-----------------|----------------------|
-----------------x--------|--------------------|----------------------|


  E  E  E  E  E  E  E   E     Q    E  E  E  E  E  E
-----------------------/5--|----------3-----------2--|
--------------0--3---------|-------------------------|
--------------0------------|-------------------------|
-----0---------------------|----------------2--------|
-----------2---------------|-------------------------|
--3-----x-----------x------|--3----x-----2-----x-----|


  E  E  E  E    E    E  E   E     E  E  E  E  E  E   E  E
---------------------------/5--|-----3-----5-----5s--7--3--|
-----2--------2g3--2g3---------|---------------------------|
-----2----------2----2---------|---------------------------|
-----4----------4--------------|---------------------------|
--2--------2-------------------|--------------2------------|
--------x---------------x------|--0-----x------------x-----|


  Q    E   E  E  E  E   E     Q    E  Q    E  E  E
---------------------------|------------------------|
-------x--/5-----5--x--/5--|-------5--3----1-----5--|
-------x--/5-----5--x--/5--|-------5--4----0-----5--|
---------------------------|------------------------|
--3-----------3------------|--3------------2--------|
---------------------------|-------x----------x-----|


    Q    E  E    E    E  E    E     Q    E  Q     Q    E
----------------------------0g2--|--L----2--2-------------|
--3g5----------3g5--3g5-------1--|--L----1--1----/5----3--|
----5------------5----5-------2--|--L----2--2----/5----4--|
---------------------------------|--0----0--0-------------|
----0-------0--------------------|------------------------|
---------x---------------x-------|------------------------|


  Q    E  E  E  E  E   E     Q    E  E  Q    E  E
----------------------/5--|----------7--------------|
-------------0--3---------|---------------------1h--|
-------------0------------|-------------------------|
-------0------------------|-------------------------|
-------------2------------|-------------2-----------|
--3-------x--------x------|--3----x----------x------|


  E  E  E  E    E    E  E   E     E  E  E  E  E  E   E  E
---------------------------/5--|-----3-----5-----5s--7--3--|
-----3--------1g3--1g3---------|-----5-----3-----3---------|
----------------2----2---------|---------------------------|
-------------------------------|---------------------------|
-------------------------------|--------------2------------|
--2-----x--2------------x------|--0-----x------------x-----|


  E  E  E   E  E  E  E   E     Q    E  Q    E  E  E
-----3----------------------|------------------------|
-----0--x--/5-----5--x--/5--|-------5--3----1-----5--|
--------x--/5-----5--x--/5--|-------5--4----0-----5--|
----------------------------|------------------------|
--3------------3------------|--3------------2--------|
----------------------------|-------x----------x-----|


    Q    E  E    E    E  E    E     Q    E  Q    E    E  E
----------------------------0g2--|--L----2--2----2--2g3--3--|
--3g5----------3g5--3g5-------1--|--L----1--1----1----1-----|
----5------------5----5-------2--|--L----2--2----2----2-----|
---------------------------------|--0----0--0----0----0-----|
----0-------0--------------------|--------------------------|
---------x---------------x-------|--------------------------|


  E  S S E  E  E  E  E  E     E  E  E  E  E  E  E    E
-------3-------------------|--------------3--3----------|
-------0-x--0--------0--1--|-----0--------------1--1g3--|
---------x--0-----2--------|-----------2--------x----x--|
---------------------------|--------------------x----x--|
---------------2-----------|--3-----------3-------------|
--3--L---------------x-----|--------x-------------------|


  Q    E  E  E  E  E  E     E    E  E  E  E  Q    E
-------------3--3--------|-------------------2----3--|
-------5--3--------1--3--|-----3g5--3--1-----1----3--|
-------------------------|-------------------2----0--|
-------------------------|----------------0----------|
--0----------0--0--------|--3------------------------|
-------x-----------x-----|----------x----------------|


  E  S S E  E  E  E  E  E     E  E  E  E  E  E  E    E
-------3-------------------|--------------3--3----------|
-------3-x--0--------0--1--|-----0--0-----------1--1g3--|
---------x--0-----2--------|-----------2--------x----x--|
---------------------------|--------------------x----x--|
---------------2-----------|--3-----------3-------------|
--3--L---------------x-----|--------x-------------------|


  Q    E  E  E  E  E  E     E    E  E  E  E  Q    E     Q    E  Q    E  E  E
-------------3--3--------|-------------------2----3--|------------------------|
-------5--3--------1--3--|-----3g5--3--1-----1----3--|----------0-------0--1--|
-------------------------|-------------------2----0--|----------0----2--------|
-------------------------|----------------0----------|------------------------|
--0----------0--0--------|--3------------------------|----------2-------------|
-------x-----------x-----|----------x----------------|--3----x----------x-----|


  E  E  E  E  E  E  E    E     Q    E  E  E  E  E  E
--------------3--3----------|-------------3--3--------|
-----0--0-----------1--1g3--|-------5--3--------1--3--|
-----------2--------x----x--|-------------------------|
--------------------x----x--|-------------------------|
--3-----------3--3----------|--0----------0--0--------|
--------x-------------------|-------x-----------x-----|


                             TP          TP
  E  E  E   E  E  Q    E     E  E  E  E  E  E  E  E
------------------2----3--|--3-----------5-----------|
-----5--3S--1-----1----3--|--------3-----------3-----|
------------------2----0--|-----0-----0-----2-----2--|
---------------0----------|--------------------------|
--3-----------------------|--------------------------|
--------x-----------------|--3-----------2-----------|


  TP    TP TP TP             TP    TP TP    tr
  E  E  E  E  E  E  E  E     E  E  E  E  E  E     Q
--7-----8--7--4-----------|--3-----0--3--3--2(3)--L----|
--------8-----------5-----|--------1-----1-------------|
-----7-----7-----4-----4--|-----0-----0--2-------------|
--------------------------|--------------0-------------|
--7-----------------------|--0-------------------------|
--------------0-----------|----------------------------|


  S  S  T  T  T  T  T  T  T  T  T  T  T  T  T  T  T  T  T  T  T  T  T  T  T  T
--0h-2h-5p-3p-2p-0h-5p-3p-2p-0h-5p-3p-2p-0h-5p-3p-2p-0h-5p-3p-2p-0h-5p-3p-2p-0h-|
--------------------------------------------------------------------------------|
--------------------------------------------------------------------------------|
--------------------------------------------------------------------------------|
--------------------------------------------------------------------------------|
--------------------------------------------------------------------------------|


  T             T             T             T             T             T
  T  T  T  T  T T  T  T  T  T T  T  T  T  T T  T  T  T  T T  T  T  T  T T  T  T
--7p-5p-3p-2p-0------------------------------------------------------------------|
----------------7p-5p-3p-2p-0----------------------------------------------------|
------------------------------7p-5p-3p-2p-0--------------------------------------|
--------------------------------------------7p-5p-3p-2p-0------------------------|
----------------------------------------------------------7p-5p-3p-2p-0----------|
------------------------------------------------------------------------7p-5p-3--|p


                            TP                         TP
                |--3--|
  H        Q    E  E  E     E  E  E  E  E  E  E  E     E  E  E  E  E  E  E  E
--L--------L----0--2--3--|--3-----------------------|--3-----------------------|
--L--------L-------------|--------3-----------3-----|--------3-----------3-----|
--L--------L-------------|-----0-----0-----0-----0--|-----0-----0-----0-----0--|
--L--------L-------------|--------------------------|--------------------------|
-------------------------|--------------3-----------|--2-----------1-----------|
-------------------------|--3-----------------------|--------------------------|


  ^      tr
  E   E  Q       H           S S  S  S  S  S  S  S  S  S  S  S  Q
--3S--5--3(5)----L--------|--3---------------------------------------|
--1-----------------------|----0h-1p-0h-1p-0h-1p-0h-1p-0h-1p-0h-1----|
--0-----------------------|----0--0--0--0--0--0--0--0--0--0--0--0----|
--0-----------------------|----0--2--0--2--0--2--0--2--0--2--0--2----|
--0-----------------------|------------------------------------------|
--------------------------|--3---------------------------------------|


  ^
  W
--3----------------||
--3----------------||
--0----------------||
--0----------------||
--0----------------||
--3----------------||


Duration Legend
---------------
W - whole
H - half
Q - quarter
E - 8th
S - 16th
T - 32nd
X - 64th
. - note dotted
|-n-|  - n-tuplets


Tablature Legend
----------------
L - tied note
x - dead note
g - grace note
(n) - ghost note
> - accentuded note
NH - natural harmonic
AH - artificial harmonic
TH - tapped harmonic
SH - semi harmonic
PH - pitch harmonic
h - hammer on
p - pull off
b - bend
br - bendRelease
pb - preBend
pbr - preBendRelease
brb - bendReleaseBend
\n/ - tremolo bar dip
\n - tremolo bar dive
-/n - tremolo bar Release up
/n\ - tremolo bar inverted dip
/n - tremolo bar return
-\n - tremolo bar Release down
S - shift slide
s - legato slide
/ -  slide into from below or out of upwards
\ -  slide into from above or out of downwards
~ - vibrato
W - wide vibrato
tr - trill
TP - tremolo picking
T - tapping
S - slap
P - pop
< - fade in
^ - brush up
v - brush down
Tap to rate this tab
# A B C D E F G H I J K L M N O P Q R S T U V W X Y Z