Song name
# A B C D E F G H I J K L M N O P Q R S T U V W X Y Z

Michael Cooney - Weeping Willow tab

Any question send me a message. :)

Main themes
A             B
E|-----------|-----------------|
B|-----------|---11--7---11--7-|
G|-8---------|-8---8---8---8---|
D|-8--8-9-6--|-----------------|
A|-6--8-9-6--|-----------------|
D|----8-9-6--|-----------------|

Guitar verse
E|---------------------|
B|---------------------|
G|-8-------------------|
D|-6--8-9-6--6bup(8)-4-|
A|-6--8-9-6------------|
D|----8-9-6------------|

E|-----------------|
B|-----------------|
G|-----------------|
D|-6-6-6-6-6-6-6-6-|
A|-6-6-6-6-6-6-6-6-|
D|-6-6-6-6-6-6-6-6-|

(0:40) 
   F#  c# D# B
E|-------------|
B|-------------|
G|-11--6--8--4-|
D|-11--6--8--4-|
A|-9---4--6--2-|
D|-------------|

F#                        C#
Summer was painted on our skin
                        D#
and those secrets hidden in our childish lips
B
they would die for a kiss
Tap to rate this tab
# A B C D E F G H I J K L M N O P Q R S T U V W X Y Z