Guitaretab - guitar tabs
Song name
# A B C D E F G H I J K L M N O P Q R S T U V W X Y Z

Michael George - Father Figure tab

 #----------------------------------PLEASE NOTE--------------------------------#
#This file is the author's own work and represents their interpretation of the#
#song. You may only use this file for private study, scholarship, or research.#
#-----------------------------------------------------------------------------#
#-- File created with Instab - http://www.pconline.com/~smcarey/instab.html --#
#-----------------------------------------------------------------------------#

Author/Artist: Army Of Anyone
Title: Father Figure
Transcribed by: Saverain
b bend
r release bend
/ slide up
\ slide down
P.M. palm mute
h hammer on
p pull off
v vibrato
harmonics (lightly place finger over fret and strike ,
you should get a ringing sound)

Corrections may be made here,
http://www.geocities.com/tabevolution/fatherfigure.html

Standard (EADGBe)

-|----------------------------------------------------------------------------|
-|----------------------------------------------------------------------------|
-|----------------------------------------------------------------------------|
-|----------------------------------------------------------------------------|
-|----------------------------------------------------------------------------|
-|-0-0-0-0-0-7/10-0-0-0-0-0-9/10-0-0-0-0-0-9\7-0-0-0-0-0-9/10-0-0-0-0-0-7\5-0-|
   Intro P.M. 0's only

-------------------------------|----------------------------------------------|
-------------------------------|----------------------------------------------|
-------------------------------|----------------------------------------------|
--------------3-3-3-4-4-5-5-5--|----------------------------------------------|
--------------3-3-3-4-4-5-5-5--|----------------------------------------------|
-0-0-0-0-5\3--3-3-3-4-4-5-5-5--|----------------------------------------------|
              >>>>>>>>>>>>>>>Harmonics Move up frets

------|-----------------------------------------------------------------------|
------|-----------------------------------------------------------------------|
------|-----------------------------------------------------------------------|
------|-----------------------------------------------------------------------|
------|-----------------------------------------------------------------------|
------|-0-0-0-0-0-7/10-0-0-0-0-0-9/10-0-0-0-0-0-9/7-0-0-0-0-0-9/10-0-0-0-0-0--|
  Verse P.M. 0's only


-----------------------------------|------------------------------------------|
-----------------------------------|------------------------------------------|
-----------------------------------|------------------------------------------|
-----------------------------------|------------------------------------------|
-----------------------------------|------------------------------------------|
-7\5-0-0-0-0-0-5\3-0-0-0-0-0-0-0-0-|------------------------------------------|

--|-0-------------0--------------------------------|-------------|-----------|
--|-x-------------x---------------8----------------|-------------|-----------|
--|-9-------------9---------------9------------9---|-------------|-----------|
--|-9-------------9--------------------------------|-------------|-----------|
--|-7-------------7--------------------------------|-------7---5-|-----------|
--|------------------------------------------------|-5-7-9---5---|-x-7--x-5--|
  G1 PreChorus

--|---------|--|-------------|---------|-------------------------------------|
--|---------|--|-------------|---------|-------------------------------------|
--|---------|--|-------------|---------|-------------------------------------|
--|---------|7x|-------------|---------|-------------------------------------|
--|---------|--|-------7---5-|---------|-------------------------------------|
--|-0-0-0-0-|--|-5-7-9---5---|-x-7-x-5-|-------------------------------------|
  G2 P.M PreChoru 1st end      last end

-|-----------------------------------------|--|-------------------------------|
-|-----------------------------------------|--|-------------------------------|
-|-----------------------------------------|--|-------------------------------|
-|-----------------------------------------|3x|-------------------------------|
-|-----------------------------------------|--|-------------------------------|
-|-0-0-0-0-9/10-10-10-10-0-0-0-0-7/9-9-9-9-|--|-7-7-7-9-9-9-10-10-10-12-12-12-|
   Chorus P.M. Slightly
[ Tab from: http://www.guitaretab.com/m/michael-george/11945.html ]
---------|--------------------------------------------------------------------|
---------|--------------------------------------------------------------------|
---------|--------------------------------------------------------------------|
---------|--------------------------------------------------------------------|
---------|--------------------------------------------------------------------|
-10-10-9-|--------------------------------------------------------------------|


-|---------|--|-----------------------|--|------------------------------|-----|
-|---------|--|-----------------------|--|------------------------------|-----|
-|---------|--|----------7/9\7--------|--|------------------------------|-----|
-|-5-5-5-5-|--|-8/9\8-----------8/9\8-|4x|-/9\8/9\8/9\8/9\8/9\8/9\8/9\8-|-----|
-|-5-5-5-5-|--|--------9--------------|--|------------------------------|-----|
-|---------|--|-----------------------|--|------------------------------|-----|
  Harmonics Verse G2

------|----------10/12\10--------|--|-------------------------------------|---|
------|-9/10\9------------9/10\9-|--|-/10\9/10\9/10\9/10\9/10\9/10\9/10\9-|---|
------|--------9-----------------|--|-------------------------------------|---|
------|--------------------------|4x|-------------------------------------|---|
------|--------------------------|--|-------------------------------------|---|
------|--------------------------|--|-------------------------------------|---|
Verse 2 G3 in sync w/ G2

----|-------------------------------------------------------------------------|
----|-------15-----17----15--------------15-----17----17br-17br--14br--14br---|
----|------------------------------12/14-----14----14------------12br--12br---|
----|-16/18-----18----18----18vv----------------------------------------------|
----|-------------------------------------------------------------------------|
----|-------------------------------------------------------------------------|
   Solo


------------------------------------------------------------------------------|
--------------------------------------14/15-15-14/15-15-14/15-15-14/15-15-15--|
-------12-14--14/16-14-----14-14----------------------------------------------|
-12/14------------------14-------14\------------------------------------------|
------------------------------------------------------------------------------|
------------------------------------------------------------------------------|


------------------------------------------------------------------------------|
-14-13v--13-12-11-10v----10---------------------------------------------------|
----------------------12b---12-15br-15b--r---------12-14--14/16-14-----14-14--|
---------------------------------------------12/14------------------14--------|
------------------------------------------------------------------------------|
------------------------------------------------------------------------------|


----------------------------------------------------------------|-------------|
-----------------------------------------------17b-vvv-vvvv-vv--|-------------|
-----9-7-5-11-9-7-12-11-9-14-12-11-14-12-14-12------------------|-------------|
-14\------------------------------------------------------------|-------------|
----------------------------------------------------------------|-------------|
----------------------------------------------------------------|-------------|


------|----------------------------------------------------------------------|
------|----------------------------------------------------------------------|
------|----------------------------------------------------------------------|
------|----------------------------------------------------------------------|
------|----------------------------------------------------------------------|
------|-------------------------------------3/5b-r---------------------------|
  Chorus Out G2

------|----------------------------------------------------------------------|
------|-10-10-10----10-10-10----10-10-10----10-10-10----10-10-10---10-10-10--|
------|----------------------------------------------------------------------|
------|----------------------------------------------------------------------|
------|----------------------------------------------------------------------|
------|----------------------------------------------------------------------|
  Chorus Out G3

------|-----------------|---------------|-------------------------------------|
------|-----------------|---------------|-------------------------------------|
------|-----------------|---------------|-------------------------------------|
------|-0-2-4-0-5-4-2-0-|-0-2-4-0-5-4-2-|-------------------------------------|
------|-----------------|---------------|-------------------------------------|
------|-----------------|---------------|-------------------------------------|
   Chorus Out G4 Repeat           End
Related for Father Figure tab
Advertisement will be closed in 10 seconds