Song name
# A B C D E F G H I J K L M N O P Q R S T U V W X Y Z

Michael Hutchence - The Passenger tab

Title: The Passenger
Artist: Michael Hutchence (www.michaelhutchence.org/ )

This a cover of Iggy pop song : The Passenger, of the ost "Batman Forever"

Tempo = 80


Main Guitar:

intro :

E ||---------------------------------------------------|
B ||---------------------------------------------------|
G ||o--------------------------------------------------|
D ||o--------------------------------------------------|
A ||-------------6-------------------------------------|
D ||-6--6-----6--------6-----------6--9--9--9--9-------|


---------------------------------------------------||
---------------------------------------------------||
--------------------------------------------------o||
--------------------------------------------------o||     x2
--------------6------------------------------------||
--6--6-----6--------6-----2-----------4------------||


E ||------|-------|-------|------||
B ||------|-------|-------|------||
G ||o-----|-------|-------|-----o||
D ||o-----|-------|-------|-----o||
A ||------|-------|-------|------||
D ||-6----|--9----|--8----|--7---||     x2


Main Riff : 

E |----------------------------------------------------|
B |----------------------------------------------------|
G |----------------------------------------------------|
D |----------------------------------------------------|
A |----------------------------------------------------|
D |--6--6--6--6--6-----6-----6-----6-----9-------------|


----------------------------------------------------|
----------------------------------------------------|
----------------------------------------------------|
----------------------------------------------------|
----------------------------------------------------|
--6--6--6--6--6-----6-----6-----6-----7-----4-------|


----------------------------------------------------|
----------------------------------------------------|
----------------------------------------------------|
----------------------------------------------------|
----------------------------------------------------|
--6--6--6--6--6-----6-----6-----6-----11------------|


----------------------------------------------------||
----------------------------------------------------||
----------------------------------------------------||
----------------------------------------------------||
----------------------------------------------------||
--6--6--6--6--6-----6-----2-----------4-------------|| Play this all the song
Tap to rate this tab
 
# A B C D E F G H I J K L M N O P Q R S T U V W X Y Z