Guitaretab - guitar tabs
Song name
# A B C D E F G H I J K L M N O P Q R S T U V W X Y Z

Michael Jackson - Thriller tab

Intro, sounds better as chords, still pretty simple:

 Am,    C,    C,   Dm,  Am

 -0-   -0-   -0-   -1-   -0-
 -1-   -1-   -1-   -3-   -1-
 -2-   -0-   -0-   -2-   -2-
 -2-   -2-   -2-   -0-   -2-
 -0-   -3-   -3-   -0-   -0-
 -X-   -0-   -0-   -X-   -X-

Main Body:

theres two ways to do it;
[ Tab from: http://www.guitaretab.com/m/michael-jackson/138359.html ]
  1.|-----------------------------------|  Ive no idea how many times over
    |-----------------------------------|  you have to play it, listen to
    |-----------------------------------|  the original recording to find
    |------------2---4------------------|  out.
    |--4-2---4-----------4-(4)----------|
    |-----------------------------------|

  2.|-----------------------------------|
    |-----------------------------------|      This Way is easier i think.
    |-----------------------------------|      And can be played faster.
    |-----------------------------------|
    |--------------0-3-5-0-(0)----------|
    |---------(0)3----------------------|

Thats all i think you need to play the song through, apart from a drummer, bassist an 
=]

Any comments? corrections? gothic_prince_666@hotmail.co.uk
Related for Thriller tab