Guitaretab - guitar tabs
Song name
# A B C D E F G H I J K L M N O P Q R S T U V W X Y Z

Michael Jackson - Thriller tab

----------------------------------------------------------------------------
			     Thriller - Michael Jackson
----------------------------------------------------------------------------
Tabbed by:Hollywise14
Email:rockin_guitar_mat@live.ca

Tuning:Standard

e|-----------------------------|---------------|
B|-------------------1~~-1-3---|-------1-3-----|
G|-2~~-2~~-2~~-2~~-2---------2-|-2-0-2-----2-2-|X20
D|-----------------------------|---------------|
A|-----------------------------|---------------|
E|-----------------------------|---------------|

e|-------------|---------------|
B|---1~~-1-3---|-------1-3-----|
G|-2---------2-|-2-0-2-----2-2-|X2
D|-------------|---------------|
A|-------------|---------------|
E|-------------|---------------|

e|-------------|---------------|-1~~-1-------------|
B|---1~~-1-3---|-------1-3-----|-------3-----------|
G|-2---------2-|-2-0-2-----2-2-|---------0~~2-2p0h2|
D|-------------|---------------|-------------------|
A|-------------|---------------|-------------------|
E|-------------|---------------|-------------------|
[ Tab from: http://www.guitaretab.com/m/michael-jackson/252978.html ]
e|-------------|
B|-------------|
G|-------------|X6
D|-------------|
A|-------------|
E|-------------|

e|---1-1-1-1-1-1-1-0-0-0-0-0-0-0|------------|--------------|
B|------------------------------|---1~~-1-3--|-------1-3----|
G|------------------------------|-2---------2|-2-0-2-----2-2|X2
D|-3----------------------------|------------|--------------|
A|------------------------------|------------|--------------|
E|------------------------------|------------|--------------|

e|------------|-1~~-1--|------------|
B|---1~~-1-3--|-------3|------------|
G|-2---------2|--------|------------|X4
D|------------|--------|------------|
A|------------|--------|------------|
E|------------|--------|------------|

e|-5|---0---0-3-5|
B|--|-3---3------|
G|--|------------|X4
D|--|------------|
A|--|------------|
E|--|------------|

************************************

| /   slide up
| \   slide down
| h   hammer-on
| p   pull-off
| ~   vibrato
| +   harmonic
| x   Mute note
| b   Bend
| pb  Pre-bend
| br  Bend release
| pbr Pre-bend release
| brb Bend release bend

************************************
Related for Thriller tab
Thriller chords by Michael Jackson