Song name
# A B C D E F G H I J K L M N O P Q R S T U V W X Y Z

Michael Jackson - Morphine tab

This song of Michael Jackson is one of my favorites and so I decided to take a tab of it 
do not know why there is almost no tabs of this song. jejej:) have fun playing guitar 
to all.

Tab by: FIORANO
E-mail:bmrfiorano@hotmail.com
:)

e------------------------------|
B------------------------------|
G------------------------------|
D---0-5--0-5-----0-5--0-7/5----|
A---0-5--0-5-----0-5--0-5/3----|
E---0-5--0-5-----0-5--0--------|

at times this part has only been

e-------------|
B-------------|
G-------------|
D------7/5----|
A------5/3----|
E-------------|
Tap to rate this tab
# A B C D E F G H I J K L M N O P Q R S T U V W X Y Z