Song name
# A B C D E F G H I J K L M N O P Q R S T U V W X Y Z

Michael Monroe - I Wanna Be Loved tab

  Verse:
E|-------------------------------|
B|-------------------------------|
G|-------------------------------|
D|---5--5---3--3---5-------------|
A|---5--5---3--3---5-------------|
E|---3--3---1--1---3-------------|

  Chorus:
E|-----------------------------------------|
B|-----------------------------------------|
G|---5--5--5--5--------------------7-------|
D|---5--5--5--5---5--5--5--5-------7-------|
A|---3--3--3--3---5--5--5--5-------5-------|
E|----------------3--3--3--3---------------|
Tap to rate this tab
 
# A B C D E F G H I J K L M N O P Q R S T U V W X Y Z