Song name
# A B C D E F G H I J K L M N O P Q R S T U V W X Y Z

Michael Pitt - Death To Birth tab


E|---------------------------------------------------------------------------|
B|-----------1-----------------1-----------------0-----------------0---------|
G|--------2-----2-----------2-----2-----------1-----1-----------1-----1------|
D|-----2-----------2-----2-----------0-----2-----------2-----2-----------0---|
A|--0-----------------0-----------------2-----------------2------------------|
E|---------------------------------------------------------------------------|

E|--------------------------------------------------3-----------------------|
B|--------------0--------------0--0--------------------0--------------------|
G|-----------2-----2-----------------0-----------0--------0-----------0-----|
D|--------3-----------3-----------------------0--------------------0--------|
A|-----3--------------------3--------------2--------------------2-----------|
E|--1--------------------1--------------3--------------------3--------------|

Thats Basicly it. just repeat it a bunch. enjoy!
Tap to rate this tab
 
# A B C D E F G H I J K L M N O P Q R S T U V W X Y Z