Song name
# A B C D E F G H I J K L M N O P Q R S T U V W X Y Z

Michael Silverman - Bellas Lullaby tab

Michael Silverman's website: http://michaelsilvermanpiano.musicaneo.com/
Decided to do this since i found no tabs for this including the bass tones
This is also the same key as the official song
If you have a correction, please submit it!
Enjoy!

Standard tuning, play with feeling (listen to the song)

(/) Slide Up  (\) Slide Down  (h) Hammer On  (p) Pull Off  (b) Bend (r) Release (v) Vibrato

e|-0--2--3-2-3-2-3-2-3/5--------------------------------------------|
B|-----------------------5-3-3--------------------------------------|
G|------------------------------2-4-5-4-5-4-5-4-5/7-----------------|
D|-------2-------0----------------------------------7--5--4---------|
A|-----------------------3---2------0---------------9--7--5---------|
E|------------------------------------------3-----------------------|


e|-0-2-3-2-3/5-7-5-3\2----------------------------------------------|
B|---------------------5--3-3---------------------------------------|
G|-----------------------------2-4-5-4-5/7-9--7---------------------|
D|-----2-------0--------------------------------10-9-7--5--4--------|
A|---------------------3----2------0-------10--------9--7--5--------|
E|------------------------------------------------------------------|

Alternate version:

e|-0--2--3-2-3-2-3-2-3/5-0------------------------------------------|
B|-------------------------3-3--------------------------------------|
G|------------------------------2-4-5-4-5-4-5-4-5/7-----------------|
D|-------2-------0----------------------------------7--5--4---------|
A|-----------------------3---2------0---------------9--7--5---------|
E|------------------------------------------3-----------------------|


e|-0-2-3-2-3/5-7-5-3\2-0--------------------------------------------|
B|------------------------3-3---------------------------------------|
G|-----------------------------2-4-5-4-5/7-9------------------------|
D|-----2-------0-----------------------------12-10-9-7--5--4--------|
A|---------------------3----2------0-------10--------9--7--5--------|
E|------------------------------------------------------------------|

I'll add more when I've got the time
Made by Binnen97 using --->     http://www.guitartabcreator.com
Share as you like, please leave credits//Link here
Tap to rate this tab
 
# A B C D E F G H I J K L M N O P Q R S T U V W X Y Z