Michael Tolcher - Sooner Or Later tab

-------------------------------------------------------------------------------
			     Sooner or later - Michael Tolcher
-------------------------------------------------------------------------------
My first tab ever. sounds right and pretty good :)
Tabbed by: manu 
Email: manu163@web.de

Tuning: Standard E A D G B e


e|--------------------------------------------------------------|
B|---------------------3-----------------------------1----------|
G|------------------2----------------0----0-------0----------0--|
D|-------0----0-------------------2----------0h2--------0h2-----|
A|--2--2---------0----------2-----------------------------------|
E|--3--------------------------0--------------------------------|




************************************

| /   slide up
| \   slide down
| h   hammer-on
| p   pull-off
| ~   vibrato
| +   harmonic
| x   Mute note
| b   Bend
| pb  Pre-bend
| br  Bend release
| pbr Pre-bend release
| brb Bend release bend

************************************

       G         D         Em        C

e|-----3----|----2----|----0----|----0----|
B|-----3----|----3----|----0----|----1----|
G|-----0----|----2----|----0----|----0----|
D|-----0----|----0----|----2----|----2----|
A|-----2----|---------|----2----|----3----|
E|-----3----|---------|----0----|---------|






Whole song trough:

G  D  Em  C


Pull the hair back from your eyes
Let the people see your pretty face
Try not to say anything weird

Save your questions without answers
'Til your old enough to know that things ain't as they appeared

Before you go out in the sun
Cover your skin and don't get burned
Beware the cancer, it might kill you when you're old

Be first in line, raise your hand
Remember everything you hear
And playing in the rain is worth catching cold

-Chorus-
Sooner or later
We'll be lookin' back on everything
And we'll laugh about it like we knew what all was happening
And someday you might listen to what people have to say
Now you learn the hard way


We only want what's best for you
That's why we tell you what to do
And nevermind if nothing makes sense

'Cause it all works out in the end
You're just like us without a friend
But you can build a privacy fence Yeah


-Repeat Chorus-


Somethings you have to learn them all on your own
You can't rely on anybody else
Or the point of view of a source unknown
If it feels good and sounds nice
Then it's your choice don't doubt yourself
Don't even think twice

Pull the hair back from your eyes
Let the people see your pretty face
You know they like it when you smile Find a reason to smile

Try not to focus on yourself
Share that love with someone else
Don't let the bitters bring you down Down
Don't let anything bring you down


-Repeat chorus-
Tap to rate this tab
 
# A B C D E F G H I J K L M N O P Q R S T U V W X Y Z