Song name
# A B C D E F G H I J K L M N O P Q R S T U V W X Y Z

Michael Wong - Tong Hua Fairy Tale tab

                           Michael Wong - Tong Hua                                       
Tabbed by Alan Quach

     H        E.  S E  T T S    E.  T T Q.     S S E  T T S  
E||--5--------------5------3-|--3-------1----------1------0-|
B||--6--------------6--------|--1-------1----------1--------|
G||--5--------------5--------|--2-------2----------2--------|
D||--------------------------|------------------------------|
A||--------------------------|------------------------------|
E||--------------------------|------------------------------|


  E.  T T Q.     S S E  T T S    Q.     S E.  E  E  E   
--0---------------------------|------------------------|
--1-------3----------3------1-|------------------6--5--|
--0---------------------------|--5------------5--------|
----------3----------3------3-|--5---------------------|
------------------------------|------------------------|
------------------------------|------------------------|


  E.  T T Q    S. T E  E  E     E.  T T Q    S. T E  E  E   
-----------------------------|-----------------------------|
--6--------------------6--5--|--6--------------------6--5--|
----------5---------5--------|----------5---------5--------|
-----------------------------|-----------------------------|
-----------------------------|-----------------------------|
-----------------------------|-----------------------------|


  Q    S. T E  E  E  E  E     H        E  E  E  E   
---------------------------|-----------------------|
--6---------6--6-----------|-----------------6--5--|
------------------7--7--5--|--------------5--------|
---------------------------|-----------------------|
---------------------------|-----------------------|
---------------------------|-----------------------|


  E.  T T Q    S. T E  E  T T S    E.  T T Q    S. T E  E  E   
-----------------------5--------|-----------------------------|
--6---------------------------8-|--8-------6------------6--5--|
----------5---------5-----------|--------------------5--------|
--------------------------------|-----------------------------|
--------------------------------|-----------------------------|
--------------------------------|-----------------------------|


  E  E.  T T E  E  E   E  E     H        E  E  E  E   
----------------------10--8--|--------------------6--|
--6----------------6---------|--------------8--8-----|
-----7-------7--7------------|-----------------------|
-----------------------------|-----------------------|
-----------------------------|-----------------------|
-----------------------------|-----------------------|


  E  E  Q    S. T E  E  E     E  E  E  S E  T T E  E  E   
--6--5--5---------5--5-----|-----------------------------|
------------------------5--|--8--6--6--5-6------6--5--6--|
---------------------------|-----------------------------|
---------------------------|-----------------------------|
---------------------------|-----------------------------|
---------------------------|-----------------------------|


  Q    S. T E  E  E  E  E     H        E  E  E  E   
--6------------8--6--5-----|--------------------6--|
------------------------8--|--------------8--8-----|
------------5--------------|-----------------------|
---------------------------|-----------------------|
---------------------------|-----------------------|
---------------------------|-----------------------|


  E  E  Q    S. T E  E   E      E   E   E   Q     E   E   E   
--6--5--5---------5--5--13--|--12--10--12--13----13----------|
----------------------------|--------------------------------|
----------------------------|------------------------12--10--|
----------------------------|--------------------------------|
----------------------------|--------------------------------|
----------------------------|--------------------------------|


   Q    S. T  E   E  E  E  E     H        E  E  E  E   
--10---------10--10--8--8--8--|-----------------8--6--|
------------------------------|-----------------------|
------------------------------|--------------5--------|
------------------------------|-----------------------|
------------------------------|-----------------------|
------------------------------|-----------------------|


  E.  T T E  S Q    S E  E     E  E  E  S E  T T E  E  E   
--5-------5--6-5------5--6--|--5--6--5--------------5--8--|
----------------------------|-----------8-6------6--------|
----------------------------|-----------------------------|
----------------------------|-----------------------------|
----------------------------|-----------------------------|
----------------------------|-----------------------------|


   E.  T T  E   E  E  E  E  E     H        E  E  E  E   
--10-------10--10--8--------6--|--5--------------5--8--|
----------------------8--8-----|--------------6--------|
-------------------------------|-----------------------|
-------------------------------|-----------------------|
-------------------------------|-----------------------|
-------------------------------|-----------------------|


   E.  T T  E   E  E  E  E  E     E  E  E  S Q    S E   E   
--10-------10--10--8--------6--|--5--6--5------------------|
----------------------8--8-----|-----------8-6------8--10--|
-------------------------------|---------------------------|
-------------------------------|---------------------------|
-------------------------------|---------------------------|
-------------------------------|---------------------------|


  E.  T T E  E  E.  T T E.  T T    Q.     Q.     E.  T T  
--------------------------------|--1---------------------|
-------------6--6-------5-------|--3------1--------------|
--7-------7---------------------|--3------2------3-------|
--------------------------------|---------3------5-------|
--------------------------------|----------------5-------|
--------------------------------|------------------------|


  Q.     T E.  T E  E  E     Q    S. T Q    S. T Q     
--------------------------|---------------------------|
-----------------------1--|--3---------1--------------|
--2--------------2--3-----|--3---------2---------3----|
--3-----------------0--2--|--3---------3---------5----|
--3--------------3--------|----------------------5----|
--------------------------|---------------------------|


  Q    S. T E.  T T E  E  E     E  E  Q    S. T E  E  E   
--3---------3-------------6--|--6--5--5---------5--5-----|
--5---------5-------8--8-----|------------------------5--|
--5---------5----------------|---------------------------|
-----------------------------|---------------------------|
-----------------------------|---------------------------|
-----------------------------|---------------------------|


  E  E  E  S E  T T E  E  E     Q    S. T E  E  E  E  E   
--3--------------------------|--6------------8--6--5-----|
-----6--6--5-6------6--5--6--|------------------------8--|
--5--5--5--5-5------5--------|--7---------5--5--------0--|
-----------------------------|------------------8--7-----|
-----------------------------|---------------------------|
-----------------------------|---------------------------|


  H        E  E  E  E     E  E  Q    S. T E  E   E   
--------------------6--|--6--5--5---------5--5--13--|
--------------8--8-----|----------------------------|
-----------------------|--7---------------------14--|
-----------------------|----------------------------|
-----------------------|----------------------------|
-----------------------|----------------------------|


   E   E   E   Q     E   E   E      Q    S. T  S  S  E   E   E   E   
--12------12--13----13----------|--10---------10-10-10---8---8---8--|
------15------------------------|-----------------------------------|
--14--14--14--14--------12--10--|--10---------10-10-10--10--10--10--|
--------------------15----------|-----------------------------------|
--------------------------------|-----------------------------------|
--------------------------------|-----------------------------------|


  H        E   E  E  E     E.  T T E  S Q    S E  E   
------------------8--6--|--5-------5--6-5------5--6--|
------------------------|--6-------6----6------6-----|
------------------------|----------------------------|
--------------10--------|----------------------------|
------------------------|----------------------------|
------------------------|----------------------------|


  E  E  E  S E  T T E  E  E      E.  T T  E   S E.  E  E  E   
--5--6--5--3-----------5--8--|--10-------10--10-8---------6--|
--6-----6----6------6--------|------------------8---8--8-----|
-----------------------------|--10-------10--10--------------|
-----------------------------|-------------------------------|
-----------------------------|-------------------------------|
-----------------------------|-------------------------------|


  H        E  E  E  E      E.  T T  E   S E.  E  E  E   
--5--------------5--8--|--10-------10--10-8---------6--|
--------------6--------|--11--------------8---8--8-----|
-----------------------|--10-------10--10--------------|
-----------------------|-------------------------------|
-----------------------|-------------------------------|
-----------------------|-------------------------------|


  E  E  E  S Q    S E  E     E.  T T E  E  E.  T T E.  T T  
--5--6--5--------------5--|--------------------------------|
-----------8-6------8-----|--3-------3--6--6---8-6-5-------|
--------------------------|--3-------3---------------------|
--------------------------|--------------------------------|
--------------------------|--------------------------------|
--------------------------|--------------------------------|


  H        E  E   E  E     E.  T T E  S Q    S E  E   
-----------------10--8--|--7-------7--8-7------7--8--|
--6---------------------|--8-------8----8------8-----|
--------------7---------|----------------------------|
------------------------|----------------------------|
------------------------|----------------------------|
------------------------|----------------------------|


  E  E  E  S E  T T E  E   E      E.  T T  E   S  E.   E   E  E   
--7--8--7--5-----------7--10--|--12-------12--12-10-----------8--|
--8-----8----8------8---------|------------------10---10--10-----|
------------------------------|--12-------12--12-----------------|
------------------------------|----------------------------------|
------------------------------|----------------------------------|
------------------------------|----------------------------------|


  H        E  E  E   E      E.  T T  E   S  E.   E   E  E   
--7--------------7--10--|--12-------12--12-10-----------8--|
--------------8---------|--13--------------10---10--10-----|
------------------------|--12-------12--12-----------------|
------------------------|----------------------------------|
------------------------|----------------------------------|
------------------------|----------------------------------|


  E  E  E   S Q    S  E  E     E.  T T E  E  E.   T T E.  T T  
--7--8--7----------------7--|---------------------------------|
-----------10-8------10-----|--5-------5--8--8---10-8-7-------|
----------------------------|--5-------5----------------------|
----------------------------|---------------------------------|
----------------------------|---------------------------------|
----------------------------|---------------------------------|


  H        E.  S  E  E     E.  T T E  E  E.  T T E.  T T  
---------------------7--|--------------------------------|
--8--------------10-----|--5-------5--8--8-------7-------|
------------------------|--------------------------------|
------------------------|--------------------------------|
------------------------|--------------------------------|
------------------------|--------------------------------|


  Q.     S S Q.     S S   
-------------7----------||
--8----------8----------||
-------------7----------||
------------------------||
------------------------||
------------------------||
Tap to rate this tab
# A B C D E F G H I J K L M N O P Q R S T U V W X Y Z