Song name
# A B C D E F G H I J K L M N O P Q R S T U V W X Y Z

Michale Graves - Dig Up Her Bones Acoustic tab

(intro)

E |----------------------||------------------|-------------------|
B |----------------------||-------------3----|-------------------|
G |----------------------||o---------4-------|--4----------------|
D |----------------------||o------4----------|-----4-------------|
A |--------------0h-2----||-2----------------|--------------5----|
E |----------------------||------------------|--------3----------|


-------------------|-------------------|-------------------|-----0------------||
-------------------|-------------------|-------------------|--------3---------||
-----4-------------|--------------6----|-------------------|--4--------4-----o||
--5-----5----------|-----------7-------|--7-----------4----|--------------4--o||
-----------5-------|--------7----------|-----7--2----------|------------------||
--------------3h---|--5----------------|-------------------|------------------||


-------------------|-------------------|-------------------|-------------------|
--------------3----|-------------------|-------------------|--------------7----|
-----------4-------|--4----------------|-----4-------------|-----------7-------|
--------4----------|-----4-------------|--5-----5----------|--------7----------|
--2----------------|--------------5----|-----------5--3h---|--5----------------|
-------------------|--------3----------|-------------------|-------------------|


-------------------|-------------------|-------------------|-------------------|
-------------------|-------------------|-------------------|--3----------------|
--7----------------|-----6-------------|--------------4----|-----4-------------|
-----7-------------|--7-----7----------|-----------4-------|--------4----------|
--------------7----|-----------7--0h---|--2--2-------------|-------------------|
--------5----------|-------------------|-------------------|-----------3-------|


-------------------|-------------------|-------------------|-------------------|
-------------------|-------------------|-------------------|-------------------|
--------4----------|-------------------|--6----------------|--------6----------|
-----5-----5-------|--------------7----|-----7-------------|-----7-----7-------|
--5-----------5----|-----------7-------|--------7----------|--7-----------7----|
-------------------|--3--5-------------|-----------5-------|-------------------|



(Verse)

 Bm G     A          Bm
Anything is what she is
 Bm G     A               Bm
Anywhere is where she's from
 Bm G     A             Bm
Anytime is where she'll be
 Bm G     A              Bm
Anything as long as it's mine
 Bm             G       D      Bm          
And the door, it opens, is the way back in
 Bm G         D    Bm
Or is it the way back out
 Bm G      A            Bm
Anytime is where she'll be
 Bm G      A              Bm
 Anyplace, she'll see you from
 Bm       G        A         Bm
Lies and secrets become your world
 Bm       G         A           Bm
Anytime, anywhere, she takes me away


(Pre-chorus)

 Bm        G             D           Bm
And death climbs up the steps one by one
 Bm             G    
To give you the rose
 D           Bm 
That's been burnt by her son

(Chorus)

 Bm      G       D     A
Point me to the sky above
 Bm    G         D     A
I can get there on my own
 Bm     G       D     A
Walk me to the graveyard
    Bm      G       D     A
Dig up her bones



 Bm G A Bm x4


(Verse)
Bm      G        A      Bm
I have seen the demon's face
Bm      G        A        Bm
I have heard of her death place
Bm      G         A          Bm
I fall down on my knees in praise of the
Bm        G          A        Bm
Horrible things that took her away


(Pre-chorus)

 Bm        G             D           Bm
And death climbs up the steps one by one
 Bm             G    
To give you the rose
 D           Bm 
That's been burnt by her son

(Chorus)

 Bm      G       D     A
Point me to the sky above
 Bm    G         D     A
I can get there on my own
 Bm     G       D     A
Walk me to the graveyard
    Bm      G       D     A
Dig up her bones
 Bm      G       D     A
Point me to the sky above
 Bm    G         D     A
I can get there on my own
 Bm     G       D     A
Walk me to the graveyard
   Bm      G       D     A
Dig up her bones
   Bm      G       D     A
Dig up her bones

   Bm      G       D     A
Tap to rate this tab
# A B C D E F G H I J K L M N O P Q R S T U V W X Y Z