Song name
# A B C D E F G H I J K L M N O P Q R S T U V W X Y Z

Midnight Choir - Talk To Me tab

Highlighted       Show chord diagrams
                Midnight Choir - Talk To me

                      Tuning: Standar

             G            C
You're going down, like a clown
            Am        B
you've been hangin' around
         G               C        D
We're in shades when the sun dont shine

             G              C
noting but a kid all burned out
            Am                B
cursing and screaming under a cloud
         G               C        D
We're in shades when the sun dont shine

     G        A
If I close my eyes
         B      C
When you go out tonight
         G    D       G
Will you dear talk to me

            G                     C
Like an old man, sitting with the cane
            Am                B
longin' for love, longin' for rain
         G               C         D
We're in shades when the sun don't shine

             G              C
noting but a kid all burned out
            Am                B
cursing and screaming under a cloud
         G               C        D
We're in shades when the sun dont shine

     G        A
If I close my eyes
         B      C
When you go out tonight
         G    D       G
Will you dear talk to me


     G        A
If I close my eyes
         B      C
When you go out tonight
         G    D       G
Will you dear talk to me


Backing guitar plays

| G | C | Am | B | G | C | 
| D | two times.

Solo

e ----------------------------------------------------------------|
B -3s5-5s8-8s10-10s12-12-12s10-10-8-10-10-8-10-12-12s10--|
g ----------------------------------------------------------------|
d ----------------------------------------------------------------|
a ----------------------------------------------------------------|
e ----------------------------------------------------------------|

e -----------------------------------------------10------10-|
b -10-10-8-10-8-8-8-8-5-3-5-5-8-10-8-8-10-8-10b12---10b12---|
g ----------------------------------------------------------|
d ----------------------------------------------------------|
a ----------------------------------------------------------|
e ----------------------------------------------------------|

e ------10-------10-------------------------------------------|
b -10b12---10b12-----10p8----8-10-10-8-10-12--12-12-10-10-8-8-|
g ------------------------9-----------------------------------|
d ------------------------------------------------------------|
a ------------------------------------------------------------|
e ------------------------------------------------------------|

e -------------------------------------------------------------|
B -12-12s10-10-10-8-10-8-8-8-8-5-3-5-5-8-10-8-8-10-8--|
g -------------------------------------------------------------|
d -------------------------------------------------------------|
a -------------------------------------------------------------|
e -------------------------------------------------------------|


     G        A
If I close my eyes
         B      C
When you go out tonight
         G    D       G
Will you dear talk to me

     G        A
If I close my eyes
         B      C
When you go out tonight
         G    D       G
Will you dear talk to me
              A       G
Will you dear talk to me

             G            C
You're going down, like a clown
            Am        B
you've been hangin' around
         G               C        D
We're in shades when the sun dont shine


Outro

| G | C | Am | B | G | C | 
| D |


          Midnight Choir


I know the solo isn't 100% right and I think one of the chords in the verse is wrong(the first G).
Tap to rate this tab
# A B C D E F G H I J K L M N O P Q R S T U V W X Y Z