Song name
# A B C D E F G H I J K L M N O P Q R S T U V W X Y Z

Midnight Youth - Mark My Words chords

Highlighted       Show chord diagrams
Midnight Youth Ė Mark My Words
Capo 1st fret

Bm                G
One last look before I go
      D
Iíll never understand it
       Bm         G     D
But I know I can be strong
Bm               G
Falling like an autumn leaf
      D
Iím falling from the tallest tree
Bm             G       D
Into a time I donít belong

Bm         G             D
Mark my words that Iíll move on
Bm           G     D
And I will stay strong

G
I let my lover walk
D
Into the coming dawn
Bm                     A
I rest my hope in the daylight
G
And if the sun should rise
D                            A               Bm
Would you believe that when all is said and done
          G                D            A
Weíd be lost if we should face it all alone

Bm                G
One last touch before I go
     D
One month and I will feel it more
Bm                    G      D
One moment keeps the powder dry
Bm               G 
Feeling like a done-for child
D
Through it all I somehow smile
Bm                    G     D
One moment keeps the flame alive


Bm         G             D
Mark my words that Iíll move on
Bm           G     D
And I will stay strong
Bm         G             D
Mark my words that Iíll move on
Bm           G     D
And I will stay strong

G
I let my lover walk
D
Into the coming dawn
Bm                     A
I rest my hope in the daylight
G
And if the sun should rise
D                            A               Bm
Would you believe that when all is said and done
          G                D            A
Weíd be lost if we should face it all alone

Solo:
                 D                               Bm
|---------------|---------------|-------5-2-0---|-------2-------|
|---------------|-3-------------|-3---3-------3-|-0-------------|
|-------------2-|-------------2-|---------------|---------------|
|---------------|---------------|---------------|---------------|
|---------------|---------------|---------------|---------------|
|---------------|---------------|---------------|---------------|

                 D                               G
|---------------|---------------|-------3-2-0---|-------2-------|
|---------------|-3-------------|-3---3-------3-|-0-------------|
|-------------2-|-------------2-|---------------|---------------|
|---------------|---------------|---------------|---------------|
|---------------|---------------|---------------|---------------|
|---------------|---------------|---------------|---------------|

                      We'd be lost though            We'd be gone too
                 D                               Bm
|---------------|---------------|-------5-2-0---|-------2-------|
|---------------|-3-------------|-3---3-------3-|-0-------------|
|-------------2-|-------------2-|---------------|---------------|
|---------------|---------------|---------------|---------------|
|---------------|---------------|---------------|---------------|
|---------------|---------------|---------------|---------------|

                     We'd  be lost though            We'd be gonna lose
                 D                               G
|---------------|---------------|-------3-2-0---|-------2-------|
|---------3s5---|-5-------------|-3---3-------3-|-0-------------|
|------2--------|---------------|---------------|---------------|
|---------------|---------------|---------------|---------------|
|---------------|---------------|---------------|---------------|
|---------------|---------------|---------------|---------------|

D
 We'd be lost, we'd be gone
Bm
 We'd be fear, and never one
D
 We'd be lost, we'd be wrong
G
 We'd begin, we'd be good
D
 We'd be safe and we'd be us
Bm                                      D        G
 We'd be sitting down and see that it's gone, oh


Bm                G
One last look before I go
      D
Iíll never understand it
       Bm         G     D
But I know we can be strong
Bm               G
Falling like an autumn leaf
         D
You're falling from the tallest tree
Bm                  G     D
Into my arms where you belong

Bm         G             D
Mark my words that Iíll move on
Bm           G     D
And I will stay strong
Bm         G             D
Mark my words that Iíll move on
Bm           G     D
And I will stay strong


All corrections welcome. 
Please rate!
Tap to rate this tab
 
# A B C D E F G H I J K L M N O P Q R S T U V W X Y Z