Song name
# A B C D E F G H I J K L M N O P Q R S T U V W X Y Z

Mighty Mighty Bosstones - The Impression That I Get tab

this is a really cool song. i was too lazy to do the strumming patterns but its
just basic punk ska all the way through so you dont really need it.

tuning-standard-EADGBe

Intro/Bridge, try to put some mutes inbetween

  E  B  E  B  A  E  E  B
1-44-77-44-22-55-44-44-77---------|
2-55-77-55-44-55-55-55-77---------|
3-44-88-44-44-66-44-44-88---------|
4-66-99-66-44-77-66-66-99---------|
5---------------------------------|
6---------------------------------|

Verse/Outro, Ska upstrokes

  E  B  E  A
1-44-77-44-55----------|
2-55-77-55-55----------|
3-44-88-44-66----------|
4-66-99-66-77----------|
5----------------------|
6----------------------|

Pre Chorus

1-------------------|
2-------------------|
3----2-----2--------|
4-4--2--4--2--------|
5-4--0--4--0--------|
6-2-----2-----------|

Chorus hit each chord 16x

1----------------------|
2----------------------|
3----4--6--2-----------|
4-2--4--6--2-----------|
5-2--2--4--0-----------|
6-0--------------------|

thats all. for questions, e-mail me at horny_devil183@hotmail.com
Tap to rate this tab
# A B C D E F G H I J K L M N O P Q R S T U V W X Y Z