Song name
# A B C D E F G H I J K L M N O P Q R S T U V W X Y Z

Mighty Mighty Bosstones - Enter Sandman tab

Band: The Mighty mighty Bosstones
Song: Enter Sandman
Album: Where'd you go?
Originally written and performed by Metallica
Transcribed by: Robert Johnstone

If you look at the Bosstones CD'S the majority of the songs are covers why?
This is the best cover I have ever heard of Metallica's Enter sandman, Bosstones you rule!

Intro(3 times)
E--------------------------|
B--------------------------|
G--------------------------|
D--------5-----------------|
A------7----------7--------|
E----0-------6--5----------|

E-----------------------------------------------------------|
B-----------------------------------------------------------|
G-----------------------------------------------------------|
D---5---4----5-4-4------------------------------------------|
A---5---4----5-4-4---------------7--------------------------|
E---3-0-2-0--3-2-2-0--------0-0---6--5----------------------|

E-------------------------------------|
B-------------------------------------|
G-------------------------------------|
D-------------------------------------|
A--7---------------7------------------|
E--0--x-x-x-x-x---0--x-x-x-x-x--------|

E-----------------------------------------------------------|
B-----------------------------------------------------------|
G-----------------------------------------------------------|
D---5---4----5-4-4------------------------------------------|
A---5---4----5-4-4---------------7--------------------------|
E---3-0-2-0--3-2-2-0--------0-0---6--5----------------------|

These are the main riffs you know what to do with 'em!
Tap to rate this tab
# A B C D E F G H I J K L M N O P Q R S T U V W X Y Z