Miguel Aceves Mejia - Malaguena Salerosa tab

e|--------------------------------------------------------------|
B|-------------6--------------6---------------------------------|
G|---7---7-----7----7---7-----7----7---7--7--5--4--5------------|
D|-5----5------5--5---5-------5--5---5--------------------------|
A|--------------------------------------------------------------|
E|--------------------------------------------------------------|

e|--------------------------------------------------------------|
B|-------------8--------------8 9-8-6------6--------------------|
G|----9----9---9-----9----9---9----------8-----8-7-8------------|
D|-7----7------7--7----7------7---------------------------------|
A|--------------------------------------------------------------|
E|--------------------------------------------------------------|

e|--------------------------------------------------------------|
B|---------------9----------------9 10 9-7------7---------------|
G|----10----10---10---10----10---10-----------9-----9-8-9-------|
D|-8------8------8--8----8--------8-----------------------------|
A|--------------------------------------------------------------|
E|--------------------------------------------------------------|

  Rundown-
e|---3--4------6-4-3----4-3------3-------------------------------------|
B|--------------------6-----6-4----6-4-3----6-----4-3------------------|
G|-------------------------------------------------------4~~~~---------|
D|---------------------------------------------------------------------|
A|---------------------------------------------------------------------|
E|---------------------------------------------------------------------|

(end Riff 1)
Fast picking transition part:
e|-------------------------------------------------0--|
B|-8-8-8-9-9-9-8-8-8-6-6-6-4-4-4-3-3-3-------------0--|
G|-------------------------------------------------0--|
D|-------------------------------------------------2--|
A|-------------------------------------------------2--|
E|-------------------------------------------------0--|





e|------------------7-8----------|
B|---------7-8-------------------|
G|--4-5--------------------------|
D|-------------------------------|
A|-------------------------------|
E|-------------------------------|

chorus:
The tabs are basically Am , Dm , C , E ...


[I hope you enjoy this]
Tap to rate this tab
 
# A B C D E F G H I J K L M N O P Q R S T U V W X Y Z