Song name
# A B C D E F G H I J K L M N O P Q R S T U V W X Y Z

Miguel Bose - Amiga tab

-------------------------------------------------------------------------------
			AMIGA - Miguel Bosé
-------------------------------------------------------------------------------
Tabbed by: Rafa88offspring
Email: rafa88offspring@hotmail.com

Tuning:Standard (EADgbe)

Siguiendo uno de los requests de la página, aqui les dejo esta canción.

Guitarra principal (La guitarra secundaria puede ir tocando los acordes 
Bm, A, G, D)

e|-10-------12-14--9------12------9-----------------------------------|
B|-------12------------10------10---12-------10-12-11-----------------|
G|----11-------------9-------9------------12-11-12-12--6h7p6----------|
D|-9--------11-12--7------11-----------12--------------------9-7---7--|
A|----------------------------------10---------------------------9----|
E|--------------------------------------------------------------------|

e|-10-------12-14--9------12------9-------------------------10--|
B|-------12------------10------10---12-------10-12-11-----------|
G|----11-------------9-------9------------12-11-12-12----11-----|
D|-9--------11-12--7------11-----------12-------------12--------|
A|----------------------------------10--------------------------|
E|--------------------------------------------------------------|

para la guitarra 1
Usen los acordes arpegiados de esta manera:
    Bm	  A    G     D	   F#	A7   Gmaj7 Em   F#m
e|--10----9----10----10----9----9----10----7----9---|
B|--12----10---12----10----11---8----12----8----10--|
G|--11----9----12----11----11---9----11----9----11--|
D|--9-----7----12----12----11---7----12----9----11--|
A|--x-----x----10----12----9----x----10----7----9---|
E|--x-----x----x-----10----x----x----x-----x----x---|

La guitarra 2 puede tocar los acordes en su tono normal en la guitarra

Bm	
Ahora que te busco y
	     A
tu no estas, recuerdo
	Bm
que solo la tristeza
		A
quiere hablar conmigo.

G
Ahora que la lluvia 
	A
se ha llevado el
F#
ultimo jiron de
Bm
tu vestido

G
Ahora que he olvidado 
	Em	   
lo que soy, recuerdo
A7
en el pasado lo que he sido.

D
Si he sido lo que fui

fue por tu cuerpo
A
Si he sido noche

fue tu noche quien lo quiso
Bm
Si he sido beso
			A
es que mis labios aprendieron
		G   Gmaj7
a ser beso para ti
Em
Si he sido lo que soy fue en
	A7	
tu regazo,
F#m
Si he sido vida
F#			Bm
fue por darte a ti la vida

G   A	G   A
Amiga, Amiga
Em
Que dulce esa palabra 
	A7
suena hoy.

D
El tiempo no fue tiempo
	
entre nosotros
	A
Estando juntos nos

sentimos infinitos
Bm
y el universo era
	   A
pequeño comparado
			G  Gmaj7
con lo que eramos tu y yo

Em
Si fuiste lo que fuiste 
	   A7
fue en mi casa que para
	F#m	   F#
ti fue tu palacio y tu
Bm
guarida.

G   A	G   A
Amiga, Amiga.
Em
Que dulce esa palabra
	A7
y que sencilla esa

palabra suena hoy

e|-10-------12-14--9------12------9-----------------------------------|
B|-------12------------10------10---12-------10-12-11-----------------|
G|----11-------------9-------9------------12-11-12-12--6h7p6----------|
D|-9--------11-12--7------11-----------12--------------------9-7---7--|
A|----------------------------------10---------------------------9----|
E|--------------------------------------------------------------------|

e|-10-------12-14--9------12------9-------------------------10--|
B|-------12------------10------10---12-------10-12-11-----------|
G|----11-------------9-------9------------12-11-12-12----11-----|
D|-9--------11-12--7------11-----------12-------------12--------|
A|----------------------------------10--------------------------|
E|--------------------------------------------------------------|

Bm
No hay noche mas obscura
		  A
que estanoche y el frio
Bm
se va depositando
		   A
en los rincones del alma.

G
Y ahora que el silencio
     A
va borrando la suave
F#		Bm
vibracion de tus palabras.

G
Ahora que no son
    Em
la espera es nada
	  A7
recuerdo lo que fui

cuando no estabas

D
Si he sido lo que fui

fue por tu cuerpo
A
Si he sido noche

fue tu noche quien lo quiso
Bm
Si he sido beso
			A
es que mis labios aprendieron
		G   Gmaj7
a ser beso para ti
Em
Si he sido lo que soy fue en
	A7	
tu regazo,
F#m
Si he sido vida
F#			Bm
fue por darte a ti la vida

G   A	G   A
Amiga, Amiga
Em
Que dulce esa palabra 
	A7
suena hoy.

D
El tiempo no fue tiempo
	
entre nosotros
	A
Estando juntos nos

sentimos infinitos
Bm
y el universo era
	   A
pequeño comparado
			G  Gmaj7
con lo que eramos tu y yo

Em
Si fuiste lo que fuiste 
	   A7
fue en mi casa que para
	F#m	   F#
ti fue tu palacio y tu
Bm
guarida.

G   A	G   A
Amiga, Amiga.
Em
Que dulce esa palabra
	A7
y que sencilla esa

palabra suena hoy

e|-10-------12-14--9------12------9-----------------------------------|
B|-------12------------10------10---12-------10-12-11-----------------|
G|----11-------------9-------9------------12-11-12-12--6h7p6----------|
D|-9--------11-12--7------11-----------12--------------------9-7---7--|
A|----------------------------------10---------------------------9----|
E|--------------------------------------------------------------------|

e|-10-------12-14--9------12------9-------------------------10--|
B|-------12------------10------10---12-------10-12-11-----------|
G|----11-------------9-------9------------12-11-12-12----11-----|
D|-9--------11-12--7------11-----------12-------------12--------|
A|----------------------------------10--------------------------|
E|--------------------------------------------------------------|


| /  slide up
| \  slide down
| h  hammer-on
| p  pull-off
| ~  vibrato
| +  harmonic
| x  Mute note
===============================================================================
Tap to rate this tab
 
# A B C D E F G H I J K L M N O P Q R S T U V W X Y Z