Song name
# A B C D E F G H I J K L M N O P Q R S T U V W X Y Z

Miguel - Sure Thing tab

-------------------------------------------------------------------------------
			    Sure Thing - Miguel
-------------------------------------------------------------------------------
Tabbed by: Trey Hopkins
Email:

Tuning: Standard
The same chords are played throughout the song. i really like these chords. enjoy!


e|------------------------------------------------------------------------------|
B|--14----9-----9-----7---------------------------------------------------------|
G|--14----9-----9-----7---------------------------------------------------------|
D|--X-----7-----X-----X---------------------------------------------------------|
A|--12----9-----7-----5---------------------------------------------------------|
E|--14----------9-----7---------------------------------------------------------|
Tap to rate this tab
 
# A B C D E F G H I J K L M N O P Q R S T U V W X Y Z