Song name
# A B C D E F G H I J K L M N O P Q R S T U V W X Y Z

Mika Miko - End Of Time tab

-------------------------------------------------------------------------------
			     END OF TIME - Mika Miko
-------------------------------------------------------------------------------
Tabbed by: DPL
Email: nizibian@gmail.com

Tuning: Standard (EADGBe)

Part 1
e|---------------------------------------------------------------------------|
B|---------------------------------------------------------------------------|
G|---------------------------------------------------------------------------|
D|-5-------------------------------------------------------------------------|
A|-3-------------------------------------------------------------------------|
E|---------------------------------------------------------------------------|

Part 2
e|---------------------------------------------------------------------------|
B|------------------------------------------------------------------/555-55--|
G|---------------------------------------------------------------------------|
D|-5-5554------------9-999-5-4-4-3-4 xx-5-5554------------9-999-5-4-/444-44--|
A|-3-3332-7-7-6-7-xx-7-777-3-2-2-1-2-xx-3-3332-7-7-6-7-xx-7-777-3-2-/222-22--|
E|--------5-5-4-5-xx---------------------------5-5-4-5-xx--------------------|

Part 3
e|---------------------------------------------------------------------------|
B|---------------------------------------------------------------------------|
G|---------------------------------------------------------------------------|
D|-99-1212-14-141414-15-14\\-9-999-5-4-xxxxxxxx------------------------------|
A|-77-1010-12-121212-13-12\\-7-777-3-2-xxxxxxxx------------------------------|
E|---------------------------------------------------------------------------|

e|---------------------------------------------------------------------------|
B|-----------------------------------------555b------------------------------|
G|-----------------------------------------444b------------------------------|
D|-99-1212-14-141414-15-14\\-9-999-5-4-xxxxxxx-------------------------------|
A|-77-1010-12-121212-13-12\\-7-777-3-2-xxxxxxx-------------------------------|
E|---------------------------------------------------------------------------|

Part 4
e|---------------------------------------------------------------------------|
B|---------------------------------------------------------------------------|
G|---------------------------------------------------------------------------|
D|-5-5554------------9-999-5-4-44-444----------------------------------------|
A|-3-3332-7-7-6-7-77-7-777-3-2-22-222----------------------------------------|
E|--------5-5-4-5-55---------------------------------------------------------|


Part 1
Part 2 x2
Part 3
Part 4 x6
Part 3
Part 4 x4
Part 1


************************************

| /   slide up
| \   slide down
| h   hammer-on
| p   pull-off
| ~   vibrato
| +   harmonic
| x   Mute note
| b   Bend
| pb  Pre-bend
| br  Bend release
| pbr Pre-bend release
| brb Bend release bend

************************************
Tap to rate this tab
 
# A B C D E F G H I J K L M N O P Q R S T U V W X Y Z