Song name
# A B C D E F G H I J K L M N O P Q R S T U V W X Y Z

Mike Comfort - Pledge tab

Dir en grey

The Pledge

Hello, everybody! That's my Version of the Song "The Pledge" by "Dir en grey". It's not 
right but it sounds very good.

Please Rate it.

It's drop D + 1 half down Tuning


Intro:

Guitar 1:

A:

Db--------------|-5-5----5----|-2-2---2----|-4-4---4---|
Ab-2-2----2-----|-------------|------------|-----------|
Db--------------|-----4-------|------------|-----5---4-|
Gb-----2-----0--|-----------0-|-----2----0-|-----------|
Bb--------------|-------------|------------|-----------|
eb--------------|-------------|------------|-----------|

B:

Db--------------|-0-0----0----|-2-2---2----|-4-4---4---|
Ab-2-2----2-----|-------------|------------|-----------|
Db--------------|-----4-------|------------|-----5---4-|
Gb-----2-----0--|-----------0-|-----2----0-|-----------|
Bb--------------|-------------|------------|-----------|
eb--------------|-------------|------------|-----------|


Guitar 2: He's playing while the 1st guitar is playing part B

Db--------------------------|--------------------------|
Ab--------------------------|--------------------------|
Db--------------------------|--------------------------|
Gb--7-7----7---11-|--9-|----|--7-7----7---9-|--11-|----|
Bb-------------10-|--7-|----|-------------7-|--10-|----|
eb-------5-----9--V--7-V----|-------5-----7-V---9-V----|




Breaking Part: (with wah wah)

"^" = Bend    "v"= release


Db--------------|--------------|
Ab--------------|--------------|
Db-5-5-5--5-----|-5-5-5--5-----|
Gb-x-x-x--x-----|-x-x-x--x-----|  4x
Bb-8-8-8--8^----|-8-8-8--8^v---|
eb--------------|--------------|



Verse:


Guitar 1:

Db------------------|-------------------------------------|
Ab-9-9-9p7-9-9-9p7--|---9-9-9p7-9-9-9p7--9-9-9p7--9-7-5---|
Db------------------|-------------------------------------|
Gb------------------|-------------------------------------|
Bb------------------|-------------------------------------|
eb------------------|-------------------------------------|


Guitar 2:

Db-----------|-------------------|-------------------|
Ab-----------|-------------------|-------------------|
Db-----------|-------------------|-------------------|
Gb-----------|-------------------|---------------9-7-|
Bb-----------|--7-7--10p8--7-8-10|--7-7--10p8--7-----|
eb-----------|-------------------|-------------------|

Guitar 3: He started after a while...


Db-----------------------------------------------------|
Ab-----------------------------------------------------|
Db--------------------4--------------------------4-----|   I think it's 2x
Gb-----2-----0--------------0-------2----0----------0--|
Bb-----------------------------------------------------|
eb-----------------------------------------------------|

End of Verse a distortion guitar plays that:

Db--------------|
Ab--------------|
Db---4----------|
Gb---3----------|
Bb---2----------|
eb--------------|



Chorus:


guitar 1:------------------------------------------!---------------------------

Db-9--9-9---5--5-5---2--2-2---4--4-4----|-9--9-9---0--0-0---2--2-2---4--4-4----|
Ab-9--9-9---5--5-5---2--2-2---4--4-4----|-9--9-9---0--0-0---2--2-2---4--4-4----|
Db-9--9-9---5--5-5---2--2-2---4--4-4----|-9--9-9---0--0-0---2--2-2---4--4-4----|
Gb--------------------------------------|--------------------------------------|
Bb--------------------------------------|--------------------------------------|
eb--------------------------------------|--------------------------------------|


Guitar 2

Playing something like that


Db--------------------------------------|-----------------------------------|
Ab--(12)--------------------------------|------(12)--9---9-\7--7\2----------|
Db-------(12)-5-----2-----4-------------|-(12)-------x---x-\x--x\x----4-----|
Gb-------------4-----0-----3------------|------------11--11\9--9\4----3-----|
Bb--------------3-----0-----2-----------|-----------------------------2-----|
eb--------------------------------------|-----------------------------------|



Intro again:


Guitar 1:

A:

Db--------------|-5-5----5----|-2-2---2----|-4-4---4---|
Ab-2-2----2-----|-------------|------------|-----------|
Db--------------|-----4-------|------------|-----5---4-|
Gb-----2-----0--|-----------0-|-----2----0-|-----------|
Bb--------------|-------------|------------|-----------|
eb--------------|-------------|------------|-----------|

B:

Db--------------|-0-0----0----|-2-2---2----|-4-4---4---|
Ab-2-2----2-----|-------------|------------|-----------|
Db--------------|-----4-------|------------|-----5---4-|
Gb-----2-----0--|-----------0-|-----2----0-|-----------|
Bb--------------|-------------|------------|-----------|
eb--------------|-------------|------------|-----------|


Guitar 2: He's playing while the 1st guitar is playing part B

Db--------------------------|--------------------------|
Ab--------------------------|--------------------------|
Db--------------------------|--------------------------|
Gb--7-7----7---11-|--9-|----|--7-7----7---9-|--11-|----|
Bb-------------10-|--7-|----|-------------7-|--10-|----|
eb-------5-----9--V--7-V----|-------5-----7-V---9-V----|



Verse 2:

Guitar 1:

Db-----------|---------------------------------------|
Ab--9-7-5----|-------9-9-9p7-9-9-9p7--9-9-9p7--9-7-5-|
Db-----------|---------------------------------------|
Gb-----------|---------------------------------------|
Bb-----------|---------------------------------------|
eb-----------|---------------------------------------|


Guitar 2:

Db-----------|-------------------|-------------------|
Ab-----------|-------------------|-------------------|
Db-----------|-------------------|-------------------|
Gb-----------|-------------------|---------------9-7-|
Bb-----------|--7-7--10p8--7-8-10|--7-7--10p8--7-----|
eb-----------|-------------------|-------------------|

Guitar 3: He started after a while...


Db-----------------------------------------------------|
Ab-----------------------------------------------------|
Db--------------------4--------------------------4-----|   I think it's 2x
Gb-----2-----0--------------0-------2----0----------0--|
Bb-----------------------------------------------------|
eb-----------------------------------------------------|

Chorus:


guitar 1:

Db-9--9-9---5--5-5---2--2-2---4--4-4----|-9--9-9---0--0-0---2--2-2---4--4-4----|
Ab-9--9-9---5--5-5---2--2-2---4--4-4----|-9--9-9---0--0-0---2--2-2---4--4-4----|
Db-9--9-9---5--5-5---2--2-2---4--4-4----|-9--9-9---0--0-0---2--2-2---4--4-4----|
Gb--------------------------------------|--------------------------------------|
Bb--------------------------------------|--------------------------------------|
eb--------------------------------------|--------------------------------------|


Guitar 2

Playing something like that (with wah wah)


Db--------------------------------------|-----------------------------------|
Ab--(12)--------------------------------|------(12)--9---9-\7--7\2----------|
Db-------(12)-5-----2-----4-------------|-(12)-------x---x-\x--x\x----4-----|
Gb-------------4-----0-----3------------|------------11--11\9--9\4----3-----|
Bb--------------3-----0-----2-----------|-----------------------------2-----|
eb--------------------------------------|-----------------------------------|


Breaking Part:

"^" = Bend    "v"= release


Db--------------|--------------|
Ab--------------|--------------|
Db-5-5-5--5-----|-5-5-5--5-----|
Gb-x-x-x--x-----|-x-x-x--x-----|  4x
Bb-8-8-8--8^----|-8-8-8--8^v---|
eb--------------|--------------|

Interlude:


Guitar 1:


Db-5--5-5---4--4-4---9--9-9---9--9-9----|-5--5-5---4--4-4---7--5-5---5--5-4----|
Ab-5--5-5---4--4-4---9--9-9---9--9-9----|-5--5-5---4--4-4---7--5-5---5--5-4----|
Db-5--5-5---4--4-4---9--9-9---9--9-9----|-5--5-5---4--4-4---7--5-5---5--5-4----|
Gb--------------------------------------|--------------------------------------|
Bb--------------------------------------|--------------------------------------|
eb--------------------------------------|--------------------------------------|


Guitar2:


Db-------------|
Ab-------------|
Db-------------| 3x
Gb-9-----------|
Bb---7--10-----|
eb-------------|


Db-----------------------|
Ab-----------------------|
Db-----------------------|
Gb-----------------------|
Bb--10---10----10--------|
eb-----9----10----9\-----|


Db-----------------------|
Ab-----------------------|
Db-----------------------| 2x
Gb-----------------------|
Bb--10---10----10---7----|
eb-----9----10-----------|

Db-------------|
Ab-------------|
Db-------------|
Gb-9-------9---|
Bb---7--10-----|
eb-------------|


Chorus:


guitar 1:------------------------------------------!---------------------------

Db-9--9-9---5--5-5---2--2-2---4--4-4----|-9--9-9---0--0-0---2--2-2---4--4-4----|
Ab-9--9-9---5--5-5---2--2-2---4--4-4----|-9--9-9---0--0-0---2--2-2---4--4-4----|
Db-9--9-9---5--5-5---2--2-2---4--4-4----|-9--9-9---0--0-0---2--2-2---4--4-4----|
Gb--------------------------------------|--------------------------------------|
Bb--------------------------------------|--------------------------------------|
eb--------------------------------------|--------------------------------------|

Db-9--9-9-------------------------------|-9--9-9---0--0-0---2--2-2---4--4-4----|
Ab-9--9-9---5--5-5---7--7-7---5--5-4----|-9--9-9---0--0-0---2--2-2---4--4-4----|
Db-9--9-9---7--7-7---9--9-9---7--7-6----|-9--9-9---0--0-0---2--2-2---4--4-4----|
Gb----------7--7-7---9--9-9---7--7-6----|--------------------------------------|
Bb--------------------------------------|--------------------------------------|
eb--------------------------------------|--------------------------------------|


Guitar 2

-----------------------------------------------------!-----------------------


Db--------------------------------------|-----------------------------------|
Ab--(12)--------------------------------|------(12)--9---9-\7--7\2----------|
Db-------(12)-5-----2-----4-------------|-(12)-------x---x-\x--x\x----4-----|
Gb-------------4-----0-----3------------|------------11--11\9--9\4----3-----|
Bb--------------3-----0-----2-----------|-----------------------------2-----|
eb--------------------------------------|-----------------------------------|


Db--------------------------------------|-------------------------------------|
Ab--(12)-------5---7-----5--------------|------(12)--9---9-\7--5/7\2----------|
Db-------(12)---7---9-----7-------------|-(12)-------x---x-\x--x/x\x----4--2--|
Gb---------------7---9-----7------------|------------11--11\9--7/9\4----3--0--|
Bb--------------------------------------|-------------------------------2--0--|
eb--------------------------------------|-------------------------------------|


End:


Guitar 1:


Db--------------|-5-5----5----|-2-2---2----|-4-4-------|-----|
Ab-2-2----2-----|-------------|------------|-----------|--2--|
Db--------------|-----4-------|------------|-----5---4-|-----|
Gb-----2-----0--|-----------0-|-----2----0-|-----------|-----|
Bb--------------|-------------|------------|-----------|-----|
eb--------------|-------------|------------|-----------|-----|

Guitar 2:


Db--------------|------------|-------------------------|----|
Ab--------------|------------|-------------------------|----|
Db--------------|------------|-------------------------|----|
Gb--------------|------------|--7-7----7---/9-|--11-|--|----|
Bb--------------|------------|-------------/7-|--10-|--|----|
eb--------------|------------|-------5-----/7-V---9-V--|----|
Tap to rate this tab
 
# A B C D E F G H I J K L M N O P Q R S T U V W X Y Z