Song name
# A B C D E F G H I J K L M N O P Q R S T U V W X Y Z

Mike Doughty - Looking At The World From The Bottom Of A Well chords

Highlighted       Show chord diagrams
SONG:   LOOKING AT THE WORLD FROM THE BOTTOM OF A WELL
ARTIST: MIKE DOUGHTY
ALBUM:  HAUGHTY MELODIC
TAB BY: BEN WOLOWSKI


Capo 2nd fret [Although live, he sometimes plays with capo on the 1st fret]


Intro/Outro:
e----------------|
B----------------|
G----4-------4---|
D--------4---4---|
A--2---2---2-----|
E----------------|
  B

Verse/Chorus/End Jam:
e-----------|
B-----------|
G--4----4---|
D--4----4---|
A--2----0---|
E-----------|
   B    B/A

Post-Chorus:
e-------|
B-------|
G-4---1-|
D-4---2-|
A-2---2-|
E-------|
  B   E

Bridge:
e-------------|
B-------------|
G--4--------4-|
D--4--6--4--4-|
A--2--6--4--2-|
E-----4--2--0-|
   B  G# F# E
Tap to rate this tab
# A B C D E F G H I J K L M N O P Q R S T U V W X Y Z