Guitaretab - guitar tabs
Song name
# A B C D E F G H I J K L M N O P Q R S T U V W X Y Z

Mike Doughty - Looking At The World From The Bottom Of A Well tab

This way saounds really good. Play the song very agressively and percusively.

THESE TABS WRITTEN WITH A CAPO ON THE SECOND FRET 

(it makes a few chords easier to play). If you don't have one, its no big deal. You
can still play the song,but you just have to add 2 to every number you see below.

Intro/0utro
e---------------|
B---------------|
G---4-------4---|
D-------4---4---|
A-2---2---2-----|
E---------------|

Sometimes it hangs on this chord for a little while
e------------------]
B------------------]
G--4---4-4-4---4-4-]
D--4---4-4-4---4-4-]
A--2---2-2-2---2-2-]
E------------------]


verse/chorus/end jam
[ Tab from: http://www.guitaretab.com/m/mike-doughty/65076.html ]
e-----------------------------------|
B-----------------------------------|
G--4---4-4-4---4-4-4---4-4-4---4-4--|
D--4---4-4-4---4-4-4---4-4-4---4-4--|
A--2---2-2-2---2-2-0---0-0-0---0-0--|
E-----------------------------------|

"lonely..and the only way to beat it is to bat it down"

                        If you don't have a capo, you can play the
                         2nd chord this way (DON'T +2 TO THESE NUMBERS)
e----------------       e---|
B----------------       B---|
G---4--4---------       G---|
D-4-4--4--2-2--2-       D-4-|
A-2-2--2--2-2--2-       A-4-|
E---------0-0--0-       E-2-|

Bridge. This sounds better than what he actually plays. trust me.
(make up your own strumming pattern on these chords)
e-------------|
B-------------|
G--3--3-------|
D--1--1--4--4-|
A--2--x--4--2-|
E-----4--2--0-|
Related for Looking At The World From The Bottom Of A Well tab
Advertisement will be closed in 10 seconds