Song name
# A B C D E F G H I J K L M N O P Q R S T U V W X Y Z

Mike Oldfield - Exorcist tab

|---------------0-----0------------|B
|----------------------------------|A
|-0-0--0--5-7-5----------5--3-2----|S
|----------------3-3------------3--|S

|-0-5-0-7-0-3-5-0-8-10-7-8-0-7-|G
|------------------------------|U
|------------------------------|I
|------------------------------|T
|------------------------------|A
|------------------------------|R

Both the Bass and Electric are repeated throughout the song.
Tap to rate this tab
# A B C D E F G H I J K L M N O P Q R S T U V W X Y Z