Song name
# A B C D E F G H I J K L M N O P Q R S T U V W X Y Z

Mike Scala - Falling tab

			     Fallin - Mike Scala
-----------------------------------------------------------------------------
Tabbed by: Daniel Gurialdi
Email: danielguri24@gmail.com


Tabbed this song out by ear. I think I have it right. There are no tabs out for any of
Mike's songs. One of the best Indie artists I've ever heard. This one is off the second
album Autumn Ashes. Took me a while to figure out I think this is right please email me 
with any suggestions!!

Tuning: Standard
Capo on 3rd Fret


Intro/Verse
e|---0-------0----------------------0-------0---------------------------------|
B|---0-------0------0-------0-------0-------0-------0-------0-----------------|
G|---0-------0------0-------0-------0-------0-------0-------0-----------------|
D|---0-------0------0-------0-------0-------0-------0-------0-----------------|
A|---2-------3------0-------0-------2-------3-------0-------0-----------------|
E|------------------2-------3-----------------------2-------3-----------------|

Listen to the song for the rhythm. For the first part of the song there is a syncopated stop

Chorus

e|---0-------0-------0---|
B|---0-------3-------3---|
G|---0-------2-------0---|
D|---2-------0-------2---|
A|---3---------------0---|
E|-----------------------|

Chorus is a bit tricky but listen for the changes

Bridge (x2)

e|-------0--------0-----|
B|-------7--------0-----|
G|-------0--------0-----|
D|-------0--------0-----|
A|-------7--------5-----|
E|----------------------|

He does a couple of different jazz chords here and uses a combination of fingerpicking.
This part I simplified because I couldn't figure them out.

Breakdown
e|---0-------0-------0---|
B|---0-------3-------3---|
G|---0-------2-------0---|
D|---2-------0-------2---|
A|---3---------------0---|
E|-----------------------|

He does this part in halftime and syncopates the last change in chords with the lyrics.


Lyrics

Verse
So give me one good reason why
I should be here,
Youíve walked in and out of my life, since the moment, that I met you

Chorus
And Iím falliní faster into you, like time
And Iím falliní faster into you, like black glass painted white..

Verse 2
Now you show up at my door saying Iím here, and everything is fine
But youíve been gone too far too long, and Iíve moved on with my life

Chorus

Bridge
So hear me, as I write these words
youíre in and out of nowhere and its time for you to find yourself

Chorus

breakdown
Iím falliní faster into you


His website is www.mikescala.com Check him out!!!
Tap to rate this tab
 
# A B C D E F G H I J K L M N O P Q R S T U V W X Y Z