Mike Stern - Upside Downside tab

Upside Downside
By
Mike Stern
Transcripton by Jason Bold
madisonjazzman@gmail.com

Pre-Intro (using volume)

(start 17th fret, high E string bent up to 19th fret, high E string
 At end, pull off to 15th fret, E string, hit 17th fret, B string)

Intro (x2)

|---------------------------------------------|
|-----10-9----8-7---6---6-5----4-3-----3-2----|
|---------------------------------------------|
|--10-----9-8----7-6-6-----5-4-----4-3--------|
|---------------------------------------------|
|---------------------------------------------|

Intro Bridge with ending #1

|---->8------->10-8-7-(7)-s>8-----10-p>8--8--8--|
|-------9---------------------------------------|
|--5------6-7-----------------------------------|
|-----------------------------------------------|
|-----------------------------------------------|
|-----------------------------------------------|

(repeat intro x2)

Intro Bridge with ending #2

|---->8------->10-8-7-(7)-s>8-----8-s>18-----|
|-------9------------------------------------|
|--5------6-7--------------------------------|
|--------------------------------------------|
|--------------------------------------------|
|--------------------------------------------|

Main 6th intervals

|--------6--5-----------------------6--5-5----8--7------------------------|
|---8------------7--6----9--8------6------------------9--8----------------|
|-------6----5-----------------9----------5--8----7-----------------------|
|----8----------7----6--9----8--7--------------------9----8---------------|
|-------------------------------------------------------------------------|
|-------------------------------------------------------------------------|

|-----------------------------------------7-6-6---6-5-5-------------------|
|----11->10-----------------6---9-------8---------------------------------|
|-----------------  8-----7---------------------6-------5-----------------|
|--11-------10---10-----------6---9-s>8-----------------------------------|
|--------------9-----9-8-8------------------------------------------------|
|-------------------------------------------------------------------------|

Main Bridge with ending #1

|--s>8-8-6------4----3-------------8--6----9-----|
|----------6--4---6----------6--4----------------|
|----------------------5--3-------------6----9---|
|------------------------------------------------|
|------------------------------------------------|
|------------------------------------------------|

(repeat main 6th intervals)

Main Bridge with ending #2 into rest of song

|--s>8-8-6------4----3-------------s>8--6----------|
|----------6--4---6----------6--4------------------|
|----------------------5--3------------------------|
|--------------------------------------------------|
|--------------------------------------------------|
|--------------------------------------------------|
Tap to rate this tab
 
# A B C D E F G H I J K L M N O P Q R S T U V W X Y Z