Song name
# A B C D E F G H I J K L M N O P Q R S T U V W X Y Z

Miles Kane - Inhaler tab

E-----------------------------------|
B-----------------------------------|
G-----------------------------------|
D------------------7--6--5--6--7----|
A---------8--7--5-------------------|
E--7---7----------------------------|

or

E-----------------------------------|
B-----------------------------------|
G------------------2--1--0--1--2----|
D---------3--2--0-------------------|
A--2---2----------------------------|
E-----------------------------------|
Tap to rate this tab
 
# A B C D E F G H I J K L M N O P Q R S T U V W X Y Z