Song name
# A B C D E F G H I J K L M N O P Q R S T U V W X Y Z

Miles Kane - Give Up tab

Intro/Outro:
|---------------------------------------------------------------------------|
|---------------------------------------------------------------------------|
|12~~-14h15h14----11-12~~-14h14h15----11-12--------------10--14h15h14-------|
|--------------15------------------15-------14-11--10-11--------------15(x2)|
|---------------------------------------------------------------------------|
|---------------------------------------------------------------------------|

Verse:
|---------------------------------------------|
|---------------------------------------------|
|---------------------------------------------|
|10----13-10----5-10----10-13--13-8-8-8-8-----|
|10----13-10----5-10----10-13--13-8-8-8-8-----|
|8-----11-8-----3-8-----8--11--11-6-6-6-6(x2)-|

Bridge:
|------------------------------------|
|------------------------------------|
|------------------------------------|
|------------------------------------|
|------------------------------------|
|4(x8)-8(x4)-2(x4)-4(x8)-3(x4)-6(x4)-|

Chorus:
|-------------------------------------------------------------------|
|-------------------------------------------------------------------|
|-------------------------8--8----------10-------------8--8---------|
|10--10--10-10-10-------6-8--8-8-8-8-8--10-----------6-8--8-8-8-8-8-|
|10--10--10-10-10-8-6-8---6--6-8-8-8-8--8-(x8)-8-6-8---6--6-8-8-8-8-|
|8---8---8--8--8---------------6-6-6-6----------------------6-6-6-6-|

|----------------------------------------------------------------|
|----------------------------------------------------------------|
|-------------------------------------------10-------------------|
|10---10---10-10-10--10-13-13-13-13-8-8-8-8-10-----13-13-8-8-8-8-|
|10---10---10-10-10--10-13-13-13-13-8-8-8-8-8-(x6)-13-13-8-8-8-8-|
|8----8----8--8--8---8--11-11-11-11-6-6-6-6--------11-11-6-6-6-6-|

These are all the parts you need for the whole song.
Order:
Intro/Outro
Verse
Bridge
Chorus
Verse
Bridge
Chorus
(No guitar for "You're pretty, good lookin', but I'm lookin' for a way out")
Last few notes of the Bridge
Chorus
Intro/Outro

Please rate and share.

Tabbed by Lewis Hall
Tap to rate this tab
# A B C D E F G H I J K L M N O P Q R S T U V W X Y Z