Song name
# A B C D E F G H I J K L M N O P Q R S T U V W X Y Z

Miles Kane - Better Than That tab

First 3 seconds:

e|----------------------------|
B|----10--11------10--11------|
G|----10--10------10--10------|
D|----------------------------|
A|----------------------------|
E|----------------------------|



Intro and main riff:

e|---------------------|
B|---------------------|
G|---------------------|
D|------1-0------------|     
A|----------3-0--------|
E|-1-1-----------------|



Verse: Play the intro riff. Repeat until,

0.23:

C = E|-3
    B|-5
    G|-5
    D|-5
    A|-3
    E|-x



Bridge:

G# = E|-4   Cm7 = E|-3    then riff
     B|-4         B|-4
     G|-5         G|-3
     D|-6         D|-5
     A|-6         A|-3
     E|-4         E|-x


and then again G#, Cm7, C7C = e|-3
                              B|-5
                              G|-3
                              D|-5
                              A|-3
                              E|-x



Chorus: Just play the intro riff



Verse: Play the intro riff. Repeat until,

1.00:

C = E|-3
    B|-5
    G|-5
    D|-5
    A|-3
    E|-x



Bridge: Same as the previous bridge


The last time before you enter the middle part, riff goes like this:

e|------3-----------|
B|------5-----------|
G|------5-----------|
D|------5-----------|     
A|------3-----------|
E|-1-1--------------|



Middle: The chords are F, G#, A#, C

When at C, play around with the 3rd and 4th fret on the D string



Chorus: Just play the intro riff



Verse: play the intro riff. Repeat until,

2.03:

C = E|-3
    B|-5
    G|-5
    D|-5
    A|-3
    E|-x



Bridge: Same as the previous bridge



Chorus: Just play the intro riff
        When the choir sings, play G#, Cm (along with the riff)



At the end, when at C, play around with the 3rd and 4th fret on the D string. 
Finish on the 1st fret at the E string
Tap to rate this tab
# A B C D E F G H I J K L M N O P Q R S T U V W X Y Z