Song name
# A B C D E F G H I J K L M N O P Q R S T U V W X Y Z

Miley Cyrus - The Climb tab



Hi, this is my version of Miley Cyrus song The Climb! (This is my first tab)

In the begining there's a piano playing but i prefere to play a Acoustic guitar!

All Chords in this song:

   E       A       F#m
|--0-------0--------0------|
|--0-------0--------0------|
|--1-------6--------2------|
|--2-------7--------4------|
|--2-------7--------4------|
|--0-------x--------x------|
  C#m   G#m    A     B
|--0-----0-----0-----0-----|
|--0-----0-----0-----0-----|
|--9-----4-----6-----8-----|
|--11----6-----7-----9-----|
|--11----6-----7-----9-----|
|--x-----x-----x-----x-----|

This is the begining, play these chords 2 times
   E       A       F#m
|--0-------0--------0------|
|--0-------0--------0------|
|--1-------6--------2------|2x
|--2-------7--------4------|
|--2-------7--------4------|
|--0-------x--------x------|
  C#m   G#m    A    F#m
|--0-----0-----0-----0-----|
|--0-----0-----0-----0-----|
|--9-----4-----6-----2-----|
|--11----6-----7-----4-----|
|--11----6-----7-----4-----|
|--x-----x-----x-----x-----|


These are the verse chords! If you don't want to play the picking part you could skip 
coming part!

e--0--0---0----0-0--0---0---0--0-----0---0--0---0--------|
b--0---0---0---0-0---0---0--0---0--0-----0---0---0-------|
g--1----1---1--1-1----1---1-6-------6----2----2---2------|2x
d--2-----------2-2----------7----7-------4---------------|
a--2-----------2-2----------7------------4---------------|
e--0-----------0-0----------x------------x---------------|

Slow Tempo, until the last chord!
e--0--0-----0--0--0-----0--0--0-----0---0--0---0---------|
b--0---0-------0---0-------0---0--------0---0---0--------|
g--9------9----4------4----6------6-----2----2---2-------|
d--11---11-----6----6------7----7-------4----------------|
a--11----------6-----------7------------4----------------|
e--x-----------x-----------x------------x----------------|

Chorus


e--0--0---0----0-0--0---0---0--0-----0---0--0---0--0-----|
b--0---0---0---0-0---0---0--0---0--0-----0---0--0---0--0-|
g--1----1---1--1-1----1---1-6-------6----2----2-8-----8--|
d--2-----------2-2----------7----7-------4------9----9---|
a--2-----------2-2----------7------------4------9--------|
e--0-----------0-0----------x------------x------x--------|

e--0--0---0----0-0--0---0----0--0----0--0----0--0---0----|
b--0---0---0---0-0---0---0---0---0---0---0---0---0-------|
g--1----1---1--1-1----1---1--9-------8-------6-----------|
d--2-----------2-2-----------11---11-9----9--7----7------|
a--2-----------2-2-----------11------9-------7-----------|
e--0-----------0-0-----------x-------x-------x-----------|


Back to the Verse!

e--0--0---0----0-0--0---0---0--0-----0---0--0---0--------|
b--0---0---0---0-0---0---0--0---0--0-----0---0---0-------|
g--1----1---1--1-1----1---1-6-------6----2----2---2------|2x
d--2-----------2-2----------7----7-------4---------------|
a--2-----------2-2----------7------------4---------------|
e--0-----------0-0----------x------------x---------------|

Slow Tempo, until the last chord, exactly like the first verse!
e--0--0-----0--0--0-----0--0--0-----0---0--0---0---------|
b--0---0-------0---0-------0---0--------0---0---0--------|
g--9------9----4------4----6------6-----2----2---2-------|
d--11---11-----6----6------7----7-------4----------------|
a--11----------6-----------7------------4----------------|
e--x-----------x-----------x------------x----------------|

Chorus


e--0--0---0----0-0--0---0---0--0-----0---0--0---0--0-----|
b--0---0---0---0-0---0---0--0---0--0-----0---0--0---0--0-|
g--1----1---1--1-1----1---1-6-------6----2----2-8-----8--|
d--2-----------2-2----------7----7-------4------9----9---|
a--2-----------2-2----------7------------4------9--------|
e--0-----------0-0----------x------------x------x--------|

e--0--0---0----0-0--0---0----0--0----0--0----0--0---0----|
b--0---0---0---0-0---0---0---0---0---0---0---0---0-------|
g--1----1---1--1-1----1---1--9-------8-------6-----------|
d--2-----------2-2-----------11---11-9----9--7----7------|
a--2-----------2-2-----------11------9-------7-----------|
e--0-----------0-0-----------x-------x-------x-----------|


Solo Part

Don't really know the solo yet, haven't figure it out! But i know it's easy, so you 
have to wait a long time to get it!

One thing you need to the solo is a slide, Iron/Glass doesn't matter!


After Solo

This is the hardest part to play in this song, according my opinion! But i tab it out, 
it isn't to hard! ;P

The you come to F#m, you have to be fast!
e--0--0---0----0--0---0----0--0----0--0-0-0-0-0-0---0---------|
b--0---0---0---0---0---0---0---0-0----0-0-0-0-0-0---0---------|
g--1----1---1--1----1---1--6------6---2-4-6-8-6-9---1---------|
d--2-----------2-----------7----7-----4-6-7-9-7-11--2---------|
a--2-----------2-----------7----------4-6-7-9-7-11--2---------|
e--0-----------0-----------x----------x-x-x-x-x-x---0---------|

And then it start all over again!


e--0--0---0----0-0--0---0----0--0----0--0----0--0---0----|
b--0---0---0---0-0---0---0---0---0---0---0---0---0-------|
g--1----1---1--1-1----1---1--9-------8-------6-----------|
d--2-----------2-2-----------11---11-9----9--7----7------|
a--2-----------2-2-----------11------9-------7-----------|
e--0-----------0-0-----------x-------x-------x-----------|


e--0--0---0----0--0---0----0--0----0---0--0----0---------|
b--0---0---0---0---0---0---0---0-0-----0---0-0-----------|
g--1----1---1--1----1---1--6------6----6------6----------|3x
d--2-----------2-----------7----7------7----7------------|
a--2-----------2-----------7-----------7-----------------|
e--0-----------0-----------x-----------x-----------------|

End the song with an E, let it ring with a little bit of vibrato!

e--0~----------------------------------------------------|
b--0~----------------------------------------------------|
g--1~----------------------------------------------------|
d--2~----------------------------------------------------|
a--2~----------------------------------------------------|
e--0~----------------------------------------------------|
Tap to rate this tab
# A B C D E F G H I J K L M N O P Q R S T U V W X Y Z