Song name
# A B C D E F G H I J K L M N O P Q R S T U V W X Y Z

Millencolin - Lozin`must tab

Verse
e|---------------------------------------------------------------------------|
B|---------------------------------------------------------------------------|
G|-----------8-8-8-8-8-----------8-8-8-8-8-----------5-5-5-5-5---------------|
D|-8-8-8-8-8-8-8-8-8-8-8-8-8-8-8-8-8-8-8-8-5-5-5-5-5-5-5-5-5-5-8-x-x-x-x-x-x-|
A|-8-8-8-8-8-6-6-6-6-6-8-8-8-8-8-6-6-6-6-6-5-5-5-5-5-3-3-3-3-3-8-x-x-x-x-x-x-|
E|-6-6-6-6-6-----------6-6-6-6-6-----------3-3-3-3-3-----------6-x-x-x-x-x-x-|

Pre Chorus
e|---------------------------------------------------------------------------|
B|---------------------------------------------------------------------------|
G|---------------------------------------------------------------------------|
D|-8-8-8-8-8-8-8-8-----------------------------------------------------------|
A|-8-8-8-8-8-8-8-8-----------------------------------------------------------|
E|-6-6-6-6-6-6-6-6-----------------------------------------------------------|

Chorus
e|---------------------------------------------------------------------------|
B|---------------------------------------------------------------------------|
G|------------------7-7-7-7-7-7-7-7-------------------8-8-8-8-8-8-8-8--------|
D|-8-8-8-8-8-8-8-8--7-7-7-7-7-7-7-7--5-5-5-5-5-5-5-5--8-8-8-8-8-8-8-8--------|
A|-8-8-8-8-8-8-8-8--5-5-5-5-5-5-5-5--5-5-5-5-5-5-5-5--6-6-6-6-6-6-6-6--------|
E|-6-6-6-6-6-6-6-6-------------------3-3-3-3-3-3-3-3-------------------------|

Verse

Pre Chorus

Chorus

Pre Bridge
e|---------------------------------------------------------------------------|
B|---------------------------------------------------------------------------|
G|-------------------7-x-x-x-x-x-x-x-x-8-x-x-x-x-x-x-x-x---------------------|
D|-8-x-x-x-x-x-x-x-x-7-x-x-x-x-x-x-x-x-8-x-x-x-x-x-x-x-x-3-x-x-x-x-x-x-x-x---|
A|-8-x-x-x-x-x-x-x-x-5-x-x-x-x-x-x-x-x-6-x-x-x-x-x-x-x-x-3-x-x-x-x-x-x-x-x---|
E|-6-x-x-x-x-x-x-x-x-------------------------------------1-x-x-x-x-x-x-x-x---|

e|---------------------------------------------------------------------------|
B|---------------------------------------------------------------------------|
G|-------------------7-x-x-x-x-x-x-x-x-8-8-8-8-8-8---------------------------|
D|-8-x-x-x-x-x-x-x-x-7-x-x-x-x-x-x-x-x-8-8-8-8-8-8-3-3-3-3-3-3---------------|
A|-8-x-x-x-x-x-x-x-x-5-x-x-x-x-x-x-x-x-6-6-6-6-6-6-3-3-3-3-3-3---------------|
E|-6-x-x-x-x-x-x-x-x-------------------------------1-1-1-1-1-1---------------|

Bridge
e|---------------------------------------------------------------------------|
B|---------------------------------------------------------------------------|
G|------------------8-8-8-8-8-8-8-8-------------------8-8-8-8-8-8-8-8--------|
D|-5-5-5-5-5-5-5-5--8-8-8-8-8-8-8-8--5-5-5-5-5-5-5-5--8-8-8-8-8-8-8-8--------|
A|-5-5-5-5-5-5-5-5--6-6-6-6-6-6-6-6--5-5-5-5-5-5-5-5--6-6-6-6-6-6-6-6--------|
E|-3-3-3-3-3-3-3-3-------------------3-3-3-3-3-3-3-3-------------------------|

e|---------------------------------------------------------------------------|
B|---------------------------------------------------------------------------|
G|-----------------------------------8-x-x-x-x-x-x-x-x-8-8-8-8-8-8-8-8-------|
D|-5-5-5-5-5-5-5-5--3-3-3-3-3-3-3-3--8-x-x-x-x-x-x-x-x-8-8-8-8-8-8-8-8-------|
A|-5-5-5-5-5-5-5-5--3-3-3-3-3-3-3-3--6-x-x-x-x-x-x-x-x-6-6-6-6-6-6-6-6-------|
E|-3-3-3-3-3-3-3-3--1-1-1-1-1-1-1-1------------------------------------------|

Solo
e|---------------------------------------------------------------------------|
B|---------------------------------------------------------------------------|
G|---10b--------10b-------8-7-----8-7----7h8--10-8-7-------------------------|
D|-8--------8-7--------8------8-------8--------------------------------------|
A|------------------------------8--------------------------------------------|
E|---------------------------------------------------------------------------|

e|----13b----------13b--------11-10--------11-10-----10h11-13b---------------|
B|-11--------11-10--------11--------11-----------11--------------------------|
G|-------------------------------------10------------------------------------|
D|---------------------------------------------------------------------------|
A|---------------------------------------------------------------------------|
E|---------------------------------------------------------------------------|

Chorus

Finish
e|---------------------------------------------------------------------------|
B|---------------------------------------------------------------------------|
G|----------x-7-7-7--x-8-8-8-------------------------------------------------|
D|-x-8-8-8--x-7-7-7--x-8-8-8--3----------------------------------------------|
A|-x-8-8-8--x-5-5-5--x-6-6-6--3----------------------------------------------|
E|-x-6-6-6--------------------1----------------------------------------------|
Tap to rate this tab
# A B C D E F G H I J K L M N O P Q R S T U V W X Y Z