Song name
# A B C D E F G H I J K L M N O P Q R S T U V W X Y Z

Millencolin - Penguins & Polarbears tab

Band: Millencollin
Song: Penguins and Polarbears

Intro
Guitar 1                             Last time
e|-2-2-2-2-2-2-2-0-3-3-5-3-3-3-5-3--|-2-2-2-2-3-5-3-3-3-3-3-|
B|-0-0-0-0-0-0-0---3-3-3-3-3-3-3-3--|-0-0-0-0-3-3-3-3-3-3-3-|
G|----------------------------------|-----------------------|
D|----------------------------------|-----------------------|
A|----------------------------------|-----------------------|
E|----------------------------------|-----------------------|
Guitar 2                             Last time
E|----------------------------------|--------------------|
B|----------------------------------|--------------------|
G|----------------------------------|--------------------|
D|-4-4-4-4--------------------------|-4-4-4-4------------|
A|-2-2-2-2-4-4-4-4-5-5-5-5-5-5-5----|-2-2-2-2--4--5--7~~-|
E|---------2-2-2-2-3-3-3-3-3-3-3----|----------2--3--5~~-|

Verse:
Guitar 1 and 2
e|--------------------------------------|
B|--------------------------------------|
G|--------------------------------------|
D|-4-4-4-4------------------------------|
A|-2-2-2-2-4-4-4-4-5-5-5-5-7-7-7-7------|
E|---------2-2-2-2-3-3-3-3-5-5-5-5------|

Chorus:
Guitar 1
e|-------------------------------------------|
B|-------------------------------------------|
G|-------------------------------------------|
D|-7-7-7-7-7-----------4-4-4-4-4-------------|
A|-5-5-5-5-5-7-7-7-7-7-2-2-2-2-2-5-5-5-5-5---|
E|-----------5-5-5-5-5-----------3-3-3-3-3---|
Guitar 2
e|-5-5-5-3-3-3-3-3-3-3-5-5-5-3-3-3-3-3-3-3---|
B|-3-3-3-3-3-3-3-3-3-3-5-3-3-3-3-3-3-3-3-3---|
G|-------------------------------------------|
D|-------------------------------------------|
A|-------------------------------------------|
E|-------------------------------------------|

Middle part:
Guitar 1                       
e|-2~~~~~~------------|--------------|-----------------------------------------|
B|-0~~~~~~------------|----0~~~------|-----------------------------------------|
G|-0~~~~~~------------|--------------|-----------------------------------------|
D|--------------------|--------------|-9-(X11)-12-(X11)-9-(X11)-12(X7)-14(X20)-|
A|--------------------|--------------|-7-------10-------7-------10-------------|
E|--------------------|--------------|-----------------------------------------|
Guitar 2
E|-----------------------------------|-----------------------------------------|
B|-----------------------------------|-----------------------------------------|
G|-----------------------------------|-----------------------------------------|
D|-----------------------------------|-9-(X11)-12-(X11)-9-(X11)-12(X7)-14(X20)-|
A|-2-2-2-2-4-4-4-4-5-5-5-5-5-5-(X6)--|-7-------10-------7-------10-------------|
E|-----------------------------------|-----------------------------------------|

Intro
Verse
Intro
Verse
Chorus
Intro
Verse
Chorus
Middle part
Chorus
Intro
Tap to rate this tab
# A B C D E F G H I J K L M N O P Q R S T U V W X Y Z