Song name
# A B C D E F G H I J K L M N O P Q R S T U V W X Y Z

Millencolin - Israelites tab

: = let ring 
X= pick scratch(muted notes)


Intro:

   B    E   F#

|-7:-0:-2:-|
|-7:-0:-2:-|
|-8:-1:-3:-|
|-9:-2:-4:-|
|-9:-2:-4:-|
|-7:-0:-2:-|

These are the only chords in the song.

Verse and chorus:

     B                       E                          F#

|-7-7-XX-|-0-0-XX-0-0-XX-2-2-XX-2-2-XX-|
|-7-7-XX-|-0-0-XX-0-0-XX-2-2-XX-2-2-XX-|
|-8-8-XX-|-1-1-XX-1-1-XX-3-3-XX-3-3-XX-|
|-9-9-XX-|-2-2-XX-2-2-XX-4-4-XX-4-4-XX-|
|-9-9-XX-|-2-2-XX-2-2-XX-4-4-XX-4-4-XX-|
|-7-7-XX-|-0-0-XX-0-0-XX-2-2-XX-2-2-XX-|
   Part 1                              Part 2


Bridge:

|------------|----------------------|----------------|
|------------|----------------------|----------------|
|------------|----------------------|----------------|
|------------|-----6-8-9-9-9-9-9-|----------------|
|---9--------|-7-9-----------------|-(9)XXXXXXXX-|
|-7---7-7-7-|----------------------|----------------|

The verses, chorus and bridges speed up here.

Bridge 2:

|----------|----------------|----------------|
|----------|----------------|----------------|
|----------|----------------|-66------------|
|----------|------6-8-9-9-|-----99-88-66-|
|---9------|-7-9----------|-----------------|
|-7---777-|---------------|-----------------|

Thats it! The outro is the chorus with the verse. Keep strummin rasta!
Tap to rate this tab
# A B C D E F G H I J K L M N O P Q R S T U V W X Y Z