Song name
# A B C D E F G H I J K L M N O P Q R S T U V W X Y Z

Millencolin - Lights Out tab

Song: Light's Out
Band: Millencolin
Album: For Monkeys (awesome album, plus one of my favourite album covers!)
Label: Burning Heart Records(Epitaph)
Written By: Mathias Farm
Tabbed By: ultimatelefty

Well I saw that there was no tab for Light's Out yet, so I decided to make one!
I don't have the exact strumming pattern for some parts because Mathias and Erik
play pretty fast, but I'm pretty sure that it's not an up-down strumming pattern.
Anyways, the chords are there, so you can pretty much get most of it figured out.
Please rate, comment, and enjoy!

Intro:

  Guitar 1:
e|---------------------------------|
B|---------------------------------|
G|-555555--55--55--555555--55--55--|
D|-555555--55--55--555555--55--55--|
A|-333333--33--33--333333--33--33--|
E|---------------------------------|
 |                                 |
 |Guitar 2:                        |
e|---------------------------------|
B|---------------------------------|
G|---------------------------------|
D|---------------------------------|
A|---------------------------------|
E|---------------------------------|



  Guitar 1:
e|-----------------------------------------------------------------|
B|-----------------------------------------------------------------|
G|-555555--55--55--555555--55--55--555555--55--55--555555--55--55--|
D|-555555--55--55--555555--55--55--555555--55--55--555555--55--55--|
A|-333333--33--33--333333--33--33--333333--33--33--333333--33--33--|
E|-----------------------------------------------------------------|
 |                                                                 |
 |Guitar 2:                                                        |
e|-----------------------------------------------------------------|
B|-----------------------------------------------------------------|
G|-555555--55--55--888888--88--88------------------555555--55--55--|
D|-555555--55--55--888888--88--88--666666--88--55--555555--55--55--|
A|-333333--33--33--666666--66--66--666666--88--55--333333--33--33--|
E|---------------------------------444444--66--33------------------|



  Guitar 1:
e|-----------------------------------------------------------------|
B|-----------------------------------------------------------------|
G|-55555555555555555555555555555555555555555555555555555555555555--|
D|-xxxxxxxxxxxxxxxxxxxxxxxxxxxxxxxxxxxxxxxxxxxxxxxxxxxxxxxxxxxxxx--|
A|-33333333333333333333333333333333333333333333333333333333333333--|
E|-----------------------------------------------------------------|
 |                                                                 |
 |Guitar 2:                                                        |
e|-----------------------------------------------------------------|
B|-----------------------------------------------------------------|
G|-555555--55--55--888888--88--88------------------555555--55--55--|
D|-555555--55--55--888888--88--88--666666--88--55--555555--55--55--|
A|-333333--33--33--666666--66--66--666666--88--55--333333--33--33--|
E|---------------------------------444444--66--33------------------|

Verse:

  Guitars 1&2:
e|----------------------------------|
B|----------------------------------|
G|-5555555588888888-----------------|
D|-55555555888888888888888866666666-|
A|-33333333666666668888888866666666-|
E|-----------------6666666644444444-|x3

e|------------------------------------------|
B|------------------------------------------|
G|-5555555588888888-------------------------|
D|-5555555588888888888888886666666666666666-|
A|-3333333366666666888888886666666666666666-|
E|-----------------666666664444444444444444-|


Chorus:

  Guitars 1&2:
e|------------------------------------------------------------------|
B|------------------------------------------------------------------|
G|-----------------5555555555555555----------------5555555533333333-|
D|-3333333366666666555555555555555533333333666666665555555533333333-|
A|-3333333366666666333333333333333333333333666666663333333311111111-|
E|-1111111144444444----------------1111111144444444-----------------|

e|------------------------------------------------------------------|
B|------------------------------------------------------------------|
G|-----------------5555555555555555---------------------------------|
D|-3333333366666666555555555555555566666666666666668888888888888888-|
A|-3333333366666666333333333333333366666666666666668888888888888888-|
E|-1111111144444444----------------44444444444444446666666666666666-|

e|--------------------------|
B|--------------------------|
G|--------------------------|
D|-6666666666666666-8--8--8-|
A|-6666666666666666-8--8--8-|
E|-4444444444444444-6--6--6-|


Post-Chorus:

  Guitar 1:
e|------------------------------------------|
B|------------------------------------------|
G|-5555-5-55-5555-5-55----------------------|
D|-5555-5-55-5555-5-55-6666-6-66--8888-8-88-|
A|-3333-3-33-3333-3-33-6666-6-66--8888-8-88-|
E|---------------------4444-4-44--6666-6-66-|
 |                                          |
 |Guitar 2:                                 |
e|------------------------------------------|
B|------------------------------------------|
G|-5555-5-55-5555-5-55-8888-10\8/10-777/8\5-|
D|-xxxx-x-xx-xxxx-x-xx-xxxx--x-x--x-xxx-x-x-|
A|-3333-3-33-3333-3-33-6666--8\6/-8-555/6\3-|
E|------------------------------------------|


  Guitar 1:
e|----------------------------------------------------------------|
B|----------------------------------------------------------------|
G|-5555-5-55-5555-5-55--------------------------------------------|
D|-5555-5-55-5555-5-55-6666-6-66--8888-8-88-8888-8-88-------------|
A|-3333-3-33-3333-3-33-6666-6-66--8888-8-88-8888-8-88-------------|
E|---------------------4444-4-44--6666-6-66-6666-6-66-------------|
 |                                                                |
 |Guitar 2:                                                       |
e|----------------------------------------------------------------|
B|----------------------------------------------------------------|
G|-5555-5-55-5555-5-55-8888-10\8/10-777/8\--7777-7-77-------------|
D|-xxxx-x-xx-xxxx-x-xx-xxxx--x-x--x-xxx-x---xxxx-x-xx-------------|
A|-3333-3-33-3333-3-33-6666--8\6/-8-555/6\--5555-5-55-------------|
E|----------------------------------------------------(PICKSLIDE)-|


Verse 2:

  Guitars 1&2:
e|----------------------------------|
B|----------------------------------|
G|-5555555588888888-----------------|
D|-55555555888888888888888866666666-|
A|-33333333666666668888888866666666-|
E|-----------------6666666644444444-|x3

e|---------------------------------------------------------------|
B|---------------------------------------------------------------|
G|-5555555588888888----------------------------------------------|
D|-555555558888888888888888888888886666666666666666~-------------|
A|-333333336666666688888888888888886666666666666666~-------------|
E|-----------------66666666666666664444444444444444~-(PICKSLIDE)-|


Chorus:

  Guitars 1&2:
e|------------------------------------------------------------------|
B|------------------------------------------------------------------|
G|-----------------5555555555555555----------------5555555533333333-|
D|-3333333366666666555555555555555533333333666666665555555533333333-|
A|-3333333366666666333333333333333333333333666666663333333311111111-|
E|-1111111144444444----------------1111111144444444-----------------|

e|------------------------------------------------------------------|
B|------------------------------------------------------------------|
G|-----------------5555555555555555---------------------------------|
D|-3333333366666666555555555555555566666666666666668888888888888888-|
A|-3333333366666666333333333333333366666666666666668888888888888888-|
E|-1111111144444444----------------44444444444444446666666666666666-|


Bridge:

  Guitars 1&2:
e|-----------------------------------------------------------------------|
B|-----------------------------------------------------------------------| 
G|-5555555555555555-------------------5555555555555555-3-333333333333333-|
D|-5555555555555555-6-666666666666666-5555555555555555-3-333333333333333-|
A|-3333333333333333-6-666666666666666-3333333333333333-1-111111111111111-|
E|------------------4-444444444444444------------------------------------|
PM                  . ...............                  . ...............

  Guitars 1&2
e|--------------------------------------------------------------------------------|
B|--------------------------------------------------------------------------------|
G|-------------------5-55-555-5-55-555-------------------333333333333333333333333-|
D|-6-66-666-3-33-333-5-55-555-5-55-555-6-66-666-3-33-333-333333333333333333333333-|
A|-6-66-666-3-33-333-3-33-333-3-33-333-6-66-666-3-33-333-111111111111111111111111-|
E|-4-44-444-1-11-111-------------------4-44-444-1-11-111--------------------------|


Outro Chorus:

  Guitars 1&2:
e|------------------------------------------------------------------|
B|------------------------------------------------------------------|
G|-----------------5555555555555555----------------5555555533333333-|
D|-3333333366666666555555555555555533333333666666665555555533333333-|
A|-3333333366666666333333333333333333333333666666663333333311111111-|
E|-1111111144444444----------------1111111144444444-----------------|

e|--------------------------------------------------------------------|
B|--------------------------------------------------------------------|
G|-----------------5555555555555555-----------------------------------|
D|-333333336666666655555555555555556666666666666666-8-888888888888888-|
A|-333333336666666633333333333333336666666666666666-8-888888888888888-|
E|-1111111144444444----------------4444444444444444-6-666666666666666-|
PM                                                    ...............

e|------------------------------------|
B|------------------------------------|
G|------------------------------------|
D|-6666666666666666-8-888888888888888-|
A|-6666666666666666-8-888888888888888-|
E|-4444444444444444-6-666666666666666-|
PM                    ...............                    

e|--------------------------------------|
B|--------------------------------------|
G|------------------------------------5-|
D|-6666666666666666-8---(Drum Part)---5-|
A|-6666666666666666-8-----------------3-|
E|-4444444444444444-6-------------------|

 Lyrics:

  Looking back in anger, looking back with joy and laughs
  don't ask me all those questions, cause I don't have the answers now
  I tried to hold back all my thoughts and all my dreams
  just to make things better, I was using myself past my means. 

  But all those days are gone
  and I can't find the path that I should follow
  I'm walking unknown land
  mile after mile I search the way back to my mind
  and I cannot believe how hard it is to find
  when I'm down. 

  I used to make things easy, I used to be a happy guy
  but now things seem so different, that I can't even play the game
  I got to try to find the way thru all this now
  so what I need now, is someone to read the map cause I don't know how. 

  I feel ashamed and I'm to blame
  cause I tried to be, I tried to see things from my side
  and I also bleed, I also need some space
  it's time to close this case. 

************************************

| /   slide up
| \   slide down
| h   hammer-on
| p   pull-off
| ~   vibrato
| +   harmonic
| x   Mute note
| b   Bend
| pb  Pre-bend
| br  Bend release
| pbr Pre-bend release
| brb Bend release bend

************************************



Tap to rate this tab
 
# A B C D E F G H I J K L M N O P Q R S T U V W X Y Z