Song name
# A B C D E F G H I J K L M N O P Q R S T U V W X Y Z

Mimi Soya - Millionaire tab

Mimi Soya - Should have called in sick
tabbed by Milou

INTRO
e|--------------------------------------------------------|
a|--------------------------------------------------------|
d|--5------------5-------------5------------5-------------|
g|--7-33-55-777--7-33-77-5555--7-33-55-777--7-33-77-5555--|
b|--7-55-77-999--7-55-99-7777--7-55-77-999--7-55-99-7777--|
e|----55-77-999----55-99-7777----55-77-999----55-99-7777--|

VERSE
e|----------------------------------|
a|----------------------------------|
d|--5-------2-------5-------2-------|
g|--7-5-33--4-3-55--7-5-33--4-3-55--|
b|--7-7-55--4-5-77--7-7-55--4-5-77--|
e|----7-55----5-77----7-55----5-77--|

PRE-CHORUS [mute]
e|----------------------------------------|
a|----------------------------------------|
d|--22222222-55555555---------------------|
g|--44444444-77777777--33333333-55555555--|
b|--44444444-77777777--55555555-77777777--|
e|---------------------55555555-77777777--|

e|-----------------------------------|
a|-----------------------------------|
d|--22222222-55555555-----------***--|
g|--44444444-77777777--33333333-555--|\
b|--44444444-77777777--55555555-777--| | *=not muted anymore
e|---------------------55555555-777--|/

CHORUS
e|--------------------------------------------------|
a|--------------------------------------------------|
d|--5------------5-------------5--------------------|
g|--7-33-55-777--7-33-77-5555--7-33-55-777--3333-7--|
b|--7-55-77-999--7-55-99-7777--7-55-77-999--5555-9--|
e|----55-77-999----55-99-7777----55-77-999--5555-9--|

e|---------------------------------------|
a|---------------------------------------|
d|--55555-------------55555--------------|
g|--77777-5-33333333--77777-5-3333-5555--|
b|--77777-7-55555555--77777-7-5555-7777--|
e|--------7-55555555--------7-5555-7777--|

VERSE 2
e|----------------------------------|
a|----------------------------------|
d|--5-------2-------5-------2-------|
g|--7-5-33--4-3-55--7-5-33--4-3-55--|
b|--7-7-55--4-5-77--7-7-55--4-5-77--|
e|----7-55----5-77----7-55----5-77--|

PRE-CHORUS [mute]
e|----------------------------------------|
a|----------------------------------------|
d|--22222222-55555555---------------------|
g|--44444444-77777777--33333333-55555555--|
b|--44444444-77777777--55555555-77777777--|
e|---------------------55555555-77777777--|

e|-----------------------------------|
a|-----------------------------------|
d|--22222222-55555555-----------***--|
g|--44444444-77777777--33333333-555--|\
b|--44444444-77777777--55555555-777--| | *=not muted anymore
e|---------------------55555555-777--|/

CHORUS
e|------------------------------------------------------|
a|------------------------------------------------------|
d|--5------------5-------------5------------5-----------|
g|--7-33-55-777--7-33-77-5555--7-33-55-777--7-33-77-55--|
b|--7-55-77-999--7-55-99-7777--7-55-77-999--7-55-99-77--|
e|----55-77-999----55-99-7777----55-77-999----55-99-77--|

e|--------------------------------------------------|
a|--------------------------------------------------|
d|--5------------5-------------5--------------------|
g|--7-33-55-777--7-33-77-5555--7-33-55-777--3333-7--|
b|--7-55-77-999--7-55-99-7777--7-55-77-999--5555-9--|
e|----55-77-999----55-99-7777----55-77-999--5555-9--|

BRIDGE

e|--------------------------------------------------------------------------------|
a|--------------------------------------------------------------------------------|
d|--------------------555-------------------------------------555-----------------|
g|--222-333-55555555--777-333-5555555555--222-333-5555555555--777-333-5555555555--|
b|--222-555-77777777--777-555-7777777777--222-555-7777777777--777-555-7777777777--|
e|------555-77777777------555-7777777777------555-7777777777------555-7777777777--|

e|--------------------------------------------------|\
a|--------------------------------------------------| \
d|--5------------5-------------5--------------------|  \
g|--7-33-55-777--7-33-77-5555--7-33-55-777--3333-7--|  / some parts are muted
b|--7-55-77-999--7-55-99-7777--7-55-77-999--5555-9--| /
e|----55-77-999----55-99-7777----55-77-999--5555-9--|/

CHORUS
e|------------------------------------------------------|
a|------------------------------------------------------|
d|--5------------5-------------5------------5-----------|
g|--7-33-55-777--7-33-77-5555--7-33-55-777--7-33-77-55--|
b|--7-55-77-999--7-55-99-7777--7-55-77-999--7-55-99-77--|
e|----55-77-999----55-99-7777----55-77-999----55-99-77--|


e|--------------------------------------------------------|
a|--------------------------------------------------------|
d|--5------------5-------------5---------------------*-*--|
g|--7-33-55-777--7-33-77-5555--7-33-55-777--3333-7---3-5--|\
b|--7-55-77-999--7-55-99-7777--7-55-77-999--5555-9---3-7--| | *= let those ring
e|----55-77-999----55-99-7777----55-77-999--5555-9---5-7--|/


http://www.myspace.com/mimisoya
Tap to rate this tab
 
# A B C D E F G H I J K L M N O P Q R S T U V W X Y Z