Mindframe - Goodbye tab

MINDFRAME - Goodbye


Tuning: Eb G# C# F# Bb Eb


Intro:        Eb-----0-----------0-----------0-----------0-----------0------------0------------I
              Bb-----0-----------0-----------0-----------0-----------0------------0------------I
              F#-----9----8x-----9----8x-----6----8x-----6----8x-----2----16x-----4----16x-----I
              C#-----9-----------9-----------6-----------6-----------2------------4------------I
              G#-----7---------6/7-----------4---------3/4-----------0------------2------------I
              Eb-------------------------------------------------------------------------------I



Verse:        Eb-----0-----------0-----------0-----------0-----------I
              Bb-----0-----------0-----------0-----------0-----------I
              F#-----9----8x-----6----8x-----2----8x-----4----8x-----I     2x
              C#-----9-----------6-----------2-----------4-----------I
              G#-----7-----------4-----------0-----------2-----------I
              Eb-----------------------------------------------------I



Pre-Chorus:   Eb-----0-----------0-----------0-----------0-----------I
              Bb-----0-----------0-----------0-----------0-----------I
              F#-----2----8x-----4----8x-----2----8x-----4----8x-----I     
              C#-----2-----------4-----------2-----------4-----------I
              G#-----0-----------2-----------0-----------2-----------I
              Eb-----------------------------------------------------I



Chorus:       Eb-----0-----------0-----------0-----------0-----------I
              Bb-----0-----------0-----------0-----------0-----------I
              F#-----9----8x-----2----8x-----6----8x-----4----8x-----I  
              C#-----9-----------2-----------6-----------4-----------I
              G#-----7-----------0-----------4-----------2-----------I
              Eb-----------------------------------------------------I


              
Bridge:       Eb-----0-----------0-----0-----0------0-----------0-----0-----0-----I
              Bb-----0-----------0-----0-----0------0-----------0-----0-----0-----I
              F#-----2----8x-----9-----6-----4------2----8x-----2-----6-----4-----I     
              C#-----2-----------9-----6-----4------2-----------2-----6-----4-----I
              G#-----0-----------7-----4-----2------0-----------0-----4-----2-----I
              Eb------------------------------------------------------------------I



Pre-Chorus:   Eb-----0-----0-----0-----0--------I
              Bb-----0-----0-----0-----0--------I
              F#-----2-----4-----2-----4--------I     
              C#-----2-----4-----2-----4--------I
              G#-----0-----2-----0-----2--------I
              Eb--------------------------------I



Outro:        Eb-----0-----------0-----0-----0--------I
              Bb-----0-----------0-----0-----0--------I
              F#-----4----8x-----2-----2-----4--------I     
              C#-----4-----------2-----2-----4--------I
              G#-----2-----------0-----0-----2--------I
              Eb--------------------------------------I



Song order:   Intro
              ___________________

              Verse  2x      
              Pre-Chorus           3x
              Chorus 2x    
              ___________________              

              Bridge
              Pre-Chorus
              Chorus 2x
              Outro
Tap to rate this tab
 
# A B C D E F G H I J K L M N O P Q R S T U V W X Y Z