Song name
# A B C D E F G H I J K L M N O P Q R S T U V W X Y Z

Mindless Self Indulgence - Never Wanted To Dance tab

Help us improve GuitareTab! Take a short survey!
Mindless Self Indulgence
Never Wanted to Dance
IF
2008


Tuning: Drop D
D A D G B E

 \  -  slide
 h  - hammer on
 P - pull off


Intro, verse, and chorus.

E------------------------------------------------------------------------|
B------------------------------------------------------------------------|
G--------------------------7--7-7--7-7--4--4-4--4-4----------------------|
D-4--4-4--4-4\7--7-7--7-7--7--7-7--7-7--4--4-4--4-4----------------------|  X6
A-4--4-4--4-4\7--7-7--7-7--5--5-5--5-5--2--2-2--2-2----------------------|
D-4--4-4--4-4\7--7-7--7-7------------------------------------------------|

E------------------------------------------------------------------------|
B------------------------------------------------------------------------|
G--11-11-11-11--11-11--9--7--7--7--7--7-10-10-10-10-11-11-11-11----------|
D--11-11-11-11--11-11--9--7--7--7--7--7-10-10-10-10-11-11-11-11----------|  X3
A---9--9--9--9---9--9--7--5--5--5--5--5--8--8--8--8--9--9--9--9----------|
D------------------------------------------------------------------------|


Then...

E------------------------------------------------------------------------|
B------------------------------------------------------------------------|
G------------------------------------------------------------------------|
D-4--4-4h7--4-4--4-4h7-4-4--4-4h7-4-4p0----------------------------------|
A-4--4-4h7--4-4--4-4h7-4-4--4-4h7-4-4p0----------------------------------|
D-4--4-4h7--4-4--4-4h7-4-4--4-4h7-4-4p0----------------------------------|
Related for Never Wanted To Dance tab