Song name
# A B C D E F G H I J K L M N O P Q R S T U V W X Y Z

Ministry Of Love - Easy tab

intro and chorus
e------------------------------------------------------------------|
b------------------------------------------------------------------|
g------------------------------------------------------------------|
d-0~-3~-5~-3~-8-8-8-8-10-10-10-10--0~-3~-5~-3~-8-8-8-8-10-10-10-10-|
a-0~-3~-5~-3~-8-8-8-8-10-10-10-10--0~-3~-5~-3~-8-8-8-8-10-10-10-10-|
d-0~-3~-5~-3~-8-8-8-8-10-10-10-10--0~-3~-5~-3~-8-8-8-8-10-10-10-10-|

pre verse riff
e-----------------------------------------------------------|
b-----------------------------------------------------------|
g-10101010101010101010101012101010101010101010101010101217~-
d-7-7-7-7-x-x-x-7-7-7-7-x-x-x-7-7-7-7-x-x-x-7-7-7-7-x-x-x---|
a-0-0-0-0-8-8-8-0-0-0-0-8-108-0-0-0-0-8-8-8-0-0-0-0-8-1015~-|
d-0-0-0-0-------0-0-0-0-------0-0-0-0-------0-0-0-0---------|

verse
e-------------------------|
b-------------------------|
g-12-12-12-12-16-14-12-12-|
d-12-12-12-12-14-12-10-10-|
a-10-10-10-10-14-12-10-10-|
d-------10-10-14-12-10-10-|

bridge
e----------------------------------|
b----------------------------------|
g-10-10-10-10-5--5--5--10-10-10-10-|
d-10-10-10-10-3--3--5--8--8--8--10-|
a-8--8--8--8--3--3--3--8--8--8--8--|
d-------------3--3--3--8--8--8--8--|

chorus
e--------------------------------------------|
b--------------------------------------------|
g-----1010----1010------1010----101012121212-|
d-0-0-x-x-----x-x-3338~-x-x-----x-x-x-x-x-x--|
a-0-0-8-8-0-0-8-8-3338~-8-8-0-0-8-8-10101010-|
d-0-0-----0-0-----3338~-----0-0--------------|
Tap to rate this tab
 
# A B C D E F G H I J K L M N O P Q R S T U V W X Y Z