Song name
# A B C D E F G H I J K L M N O P Q R S T U V W X Y Z

Ministry - Waiting tab

Intro
|------------------------------------|-----------------------------------|
|------------------------------------|-----------------------------------|
|------------------------------------|-----------------------------------|
|--2b----2-2-2----2-2-2----2-2-2-2---|-------2-2-2----2-2-2----2-2-2-2---|
|--2b----2-2-2----2-2-2----2-2-2-2---|-------2-2-2----2-2-2----2-2-2-2---|
|--0b----0-0-0----0-0-0----0-0-0-0---|--0----0-0-0----0-0-0----0-0-0-0---|

Verse
|----------------------------------|
|----------------------------------|
|----------------------------------|
|----------------------------------|
|--1-------------------------------|
|----0-0-0-3-0-0-0-0-3-0-0-3-0-3-5-|

Chorus
------------------------------|----------------------------------|
------------------------------|----------------------------------|
------------------------------|----------------------------------|
--2-2-2----2-2-2----5----6----|--2-2-2----2-2-2----2-2-2----3----|
--2-2-2----2-2-2----5----6----|--2-2-2----2-2-2----2-2-2----3----|
--0-0-0----0-0-0----3----4----|--0-0-0----0-0-0----0-0-0----1----|

Then
----------------------------------|
----------------------------------|
----------------------------------|
--2-2-2----2-2-2----2-2-2----3----|
--2-2-2----2-2-2----2-2-2----3----|
--0-0-0----0-0-0----0-0-0----1----|

Chorus end:
|--------------------------------------|
|--------------------------------------|
|--------------------------------------|
|--2-2-2----2-2-2----2-2-2----2-2-2----|
|--2-2-2----2-2-2----2-2-2----2-2-2----|
|--0-0-0----0-0-0----0-0-0----0-0-0----|

Second Verse before chorus ends like that:

|-------------------|
|-------------------|
|-------------------|
|--3----------------|
|--3----------------|
|--1----------------|
Tap to rate this tab
# A B C D E F G H I J K L M N O P Q R S T U V W X Y Z