Song name
# A B C D E F G H I J K L M N O P Q R S T U V W X Y Z

Ministry - Burning Inside tab

Bass intro
----------------------------------------------------|
----------------------------------------------------|
----------------------------------------------------|
-5-----------5-----------5-----------5--------------|

MAIN VERSE RIFF
----------------------------------------------------|
----------------------------------------------------|
------------------------8-8-8-----------------------|
-8-7--8-7--8-7--8-7-x-5-8-8-8-----------------------|
-8-7--8-7--8-7--8-7-x-5-6-6-6-----------------------|
-6-5--6-5--6-5--6-5-x-3-----------------------------|

1st CHORUS
same as verse but hold out
G-----
D--7--
A--7--
E--5-- each time you hit it

VERSE VARIATION
----------------------------------------------------------|
----------------------------------------------------------|
-------------------------------------------------8-8-8----|
-8-7-----------8-7-----------8-7---------8-7-x-5-8-8-8----|
-8-7-----------8-7-----------8-7---------8-7-x-5-6-6-6----|
-6-5-555-5-5-5-6-5-555-5-5-5-6-5-555-5-5-6-5-x-3----------|

2nd CHORUS
----------------------------------------------------|
----------------------------------------------------|
---------8-8-8--------------------------------------|
-8-7-x-5-8-8-8--------------------------------------|
-8-7-x-5-6-6-6--------------------------------------|
-6-5-x-3--------------------------------------------|

After 2nd CHORUS
------------------|
------------------|
------------------| hold out for feedback
------------------|
------------------|
-----\3-----------|

Do the Verse variation 4 more times and then the Chorus
then do the variation until fades out.

Listen to the cd for the timing the verse riff is over and over in the song.
Very Good cd, I recommend buying it.
Tap to rate this tab
# A B C D E F G H I J K L M N O P Q R S T U V W X Y Z