Guitaretab - guitar tabs
Song name
# A B C D E F G H I J K L M N O P Q R S T U V W X Y Z

Ministry - Revenge tab

Here's the tab for the intro of revenge, I think I'm the only asshole who would take the 
to learn it or even listen to "...With Sympathy".
Well.. Here you go.
[ Tab from: ]
e 5-5-7-8-7-5-5-5-7-8-7-5-1-1-3-5-3-1-3-3-5-7-5-3--|  x4 or so
B -5---------5-5---------5-1---------1-3-----------|
G -------------------------------------------------|
D -------------------------------------------------|
A -------------------------------------------------|
E -------------------------------------------------|

Then after that it goes:

e --8-12--5-8-13-12-10-8-|
B 10-----6---------------|
G -----------------------|
D -----------------------| x2
A -----------------------|
E -----------------------|

The song is not really done on guitar, so you should probably put some effects on it to 
it sound all synthy.
Related for Revenge tab