Song name
# A B C D E F G H I J K L M N O P Q R S T U V W X Y Z

Ministry - Bloodlust tab

-------------------------------------------------------------------------------
                             Bloodlust - Ministry
-------------------------------------------------------------------------------
Tabbed by:xMinistry555  
E-mail:byobgaming@live.de

Tuning:DADGBE

Intro Riff 1
e|---------------------------------------------------------------------------|
B|---------------------------------------------------------------------------|
G|---------------------------------------------------------------------------|
D|---------------------------------------------------------------------------|
A|---------------------------------------------------------------------------|
E|-00-0--00-0-00-0-00-0-00-0-0-55br-3br--------------------------------------|


Intro Riff 2 (2 Times)
e|---------------------------------------------------------------------------|
B|---------------------------------------------------------------------------|
G|---------------------------------------------------------------------------|
D|--------------------------------------------7--5--3--2---------------------|
A|--------------------------------------------5--3--1--0---------------------|
E|-00-3-0-5~-3b--00-1-0-3~-1b--00-3-0-5~-3B----------------------------------|


Verse Riff 2 (2 Times)
e|---------------------------------------------------------------------------|
B|---------------------------------------------------------------------------|
G|---------------------------------------------------------------------------|
D|--------------------------------------------7--5--3--2---------------------|
A|--------------------------------------------5--3--1--0---------------------|
E|-00-3-0-5~-3b--00-1-0-3~-1b--00-3-0-5~-3B----------------------------------|


Pre Chorus

e|---------------------|
B|---------------------|
G|---9-----10---7------|
D|---------------------|
A|---7------8---5------|
E|---------------------|


Chorus
Greed and arrogance
e|---------------------|
B|---------------------|
G|---9-----10---7------|
D|---------------------|
A|---7------8---5------|
E|---------------------|


Interlude
Blooodlust
e|---------------------------------------------------------------------------|
B|---------------------------------------------------------------------------|
G|---------------------------------------------------------------------------|
D|---------------------------------------------------------------------------|
A|-0-0-0-0-0-0-0---0-0-0-0-0-0-0---0-0-0-0-0-0-0----0-0-0-0------------------|
E|-0-0-0-0-0-0-0---0-0-0-0-0-0-0---0-0-0-0-0-0-0----0-0-0-0-05br-3-----------|



Verse Riff  (4 Times)
e|---------------------------------------------------------------------------|
B|---------------------------------------------------------------------------|
G|---------------------------------------------------------------------------|
D|--------------------------------------------7--5--3--2---------------------|
A|--------------------------------------------5--3--1--0---------------------|
E|-00-3-0-5~-3b--00-1-0-3~-1b--00-3-0-5~-3B----------------------------------|


Pre Chorus
e|---------------------|
B|---------------------|
G|---9-----10---7------|
D|---------------------|
A|---7------8---5------|
E|---------------------|


Chorus
Greed and arrogance
e|---------------------|
B|---------------------|
G|---9-----10---7------|
D|---------------------|
A|---7------8---5------|
E|---------------------|


Interlude 2: 2 times
Blooodlust
e|--------------------------------------------------------|
B|--------------------------------------------------------|
G|--------------------------------------------------------|
D|--------------------------------------------------------|
A|-----3h5-3~---------------------------------------------|
E|-0-0---------0-5h7-5~-0-3h5p3-0-1h3p1-0-0h2p0-----------|



Solo (added later)
Chorus riff played under solo


Interlude 2: 4 times
Blooodlust
e|--------------------------------------------------------|
B|--------------------------------------------------------|
G|--------------------------------------------------------|
D|--------------------------------------------------------|
A|-----3h5-3~---------------------------------------------|
E|-0-0---------0-5h7-5~-0-3h5p3-0-1h3p1-0-0h2p0-----------|


Verse Riff 2 (4 Times)
e|---------------------------------------------------------------------------|
B|---------------------------------------------------------------------------|
G|---------------------------------------------------------------------------|
D|--------------------------------------------7--5--3--2---------------------|
A|--------------------------------------------5--3--1--0---------------------|
E|-00-3-0-5~-3b--00-1-0-3~-1b--00-3-0-5~-3B----------------------------------|



Pre Chorus
e|---------------------|
B|---------------------|
G|---9-----10---7------|
D|---------------------|
A|---7------8---5------|
E|---------------------|


Chorus
Greed and arrogance
e|---------------------|
B|---------------------|
G|---9-----10---7------|
D|---------------------|
A|---7------8---5------|
E|---------------------|




Interlude 2: 9 Times
Blooodlust
e|--------------------------------------------------------|
B|--------------------------------------------------------|
G|--------------------------------------------------------|
D|--------------------------------------------------------|
A|-----3h5-3~---------------------------------------------|
E|-0-0---------0-5h7-5~-0-3h5p3-0-1h3p1-0-0h2p0-----------|


Outro 
e|-------------------------------------|
B|-------------------------------------|
G|-------------------------------------|
D|-------------------------------------|
A|-------------------------------------|
E|-00-0--00-0-00-0-00-0-00-0-----------|
Tap to rate this tab
 
# A B C D E F G H I J K L M N O P Q R S T U V W X Y Z