Song name
# A B C D E F G H I J K L M N O P Q R S T U V W X Y Z

Minor Threat - Filler tab

Standard Tuning

Intro

e|--------------------|
b|--------------------|
g|--------------------|
d|--4-----------------|
a|--4-----------------|
e|--2-----------------|

Verse

e|-----------------------|
b|-----------------------|
g|-----------------------|
d|-11--------9-----------|
a|-9--11--9--7--7--------|
e|----9---7-----5--------|

Chorus

e|---------------------------|
b|---------------------------|
g|--------------------2-4(b6)|
d|--9--7-x7(b9r7)------------|
a|--7--5---------7--4--------|
e|---------------5--2--------|

e|--------------------|
b|--------------------|
g|--------------------|
d|--9--7--------------|
a|--7--5--7--4--------|
e|--------5--2--------|

Around the end chouruses, just play some bends 
0n the higher strings within the chord.
Tap to rate this tab
# A B C D E F G H I J K L M N O P Q R S T U V W X Y Z