Guitaretab - guitar tabs
Song name
# A B C D E F G H I J K L M N O P Q R S T U V W X Y Z

Mint Royale - Singing In The Rain tab

          Mint Royale ft. Gene Kelly  - - -  Singin' in the Rain (Remix)




played over the entire song

e|------5--3--1-------5--3--1------etc-----------|
B|-----------------------------------------------|
G|-----------------------------------------------|
D|-----------------------------------------------|
A|-----------------------------------------------|
E|-----------------------------------------------|




            MAIN  RIFF  (very cool)
[ Tab from: http://www.guitaretab.com/m/mint-royale/109039.html ]
e|--------------------------------------------------------------------------------|
B|--------------------------------------------------------------------------------|
G|--------------------------------------------------------------------------------|
D|------5-----5-------------8-------8-------------7-----7----------7--------------|
A|------------------8-10-10---10-10---10-10-8-5-5---5-5---5-5------------10---10--|
E|--6-6---6-6---6-6--------------------------------------------8-8---8-8----8-----|
                  \ /                    \  /

                 play these notes very quickly





    other ways to play the 4 half-chords that make up the song

e|-----------------|-----------------|--------------|--------------|
B|-----------------|-----------------|--------------|--------------|
G|-----------------|-----------------|-----3--------|--0--3--2--0--|
D|--5--8---7-------|--5--8-----------|--5--5--7--5--|-----5--0-----|
A|-----10------10--|-----10--12--10--|--------5--3--|--1--------3--|
E|--6------10--8---|--6------10--8---|--6-----------|--------------|





http://www.faithandhope.co.uk/05artists.asp?artistid=1



Tabbed  by  NintEndO
Advertisement will be closed in 10 seconds