Mintjam - Melty Blood Tribreath tab

This is my first tab.
I liked the song so much that it needed to be tabbed so I thought I would at least start it!


e----------6---8--10---8---13---10---8--10---8--6-------------6----6--8---10---|
B--6-h8--------------------------------------------7h8---6h8----8--------------|
G------------------------------------------------------------------------------|
D------------------------------------------------------------------------------|
A------------------------------------------------------------------------------|
E------------------------------------------------------------------------------|

e8-----13----10----8---10----8--6------|
B----------------------------------6h8-|
G--------------------------------------|
D--------------------------------------|
A--------------------------------------|
E--------------------------------------|

That's it so far!!!
(Its a Japanese band)
http://www.mintjam.net/mj/
Tap to rate this tab
 
# A B C D E F G H I J K L M N O P Q R S T U V W X Y Z